Song name
# A B C D E F G H I J K L M N O P Q R S T U V W X Y Z

Mamonas Assassinas - Robocop Gay tab

Help us improve GuitareTab! Take a short survey!
Solo introduo: com distoro na guitarra.
E|- 7/8-8-8-7/8-8-8-7/8-8-8-11-8----------10----10--------------------10-----------8-8-8-|
B|- 7/8-8-8-7/8-8-8-7/8-8-8-10-8-----8-11h12-11h12-11-10-(8)------8-10--10-8---7-9-8-8-8-|
G|----------------------------7h9-9--------------------------7-9--------------9----------|
D|---------------------------------------------------------7-9---------------------------|
A|---------------------------------------------------------------------------------------|
E|---------------------------------------------------------------------------------------|

Solo final:
E|-20----------------------20----------17--------15----------------------15----------12----(17)--(13)--|
B|-------17----17-18-19----------17----------20--------12----12-13-14----------12-------15-(17)--(13)--|
G|----17----17----------17----17----17----17--------12----12----------12----12----12-------------------|
D|-----------------------------------------------------------------------------------------------------|
A|-----------------------------------------------------------------------------------------------------|
E|-----------------------------------------------------------------------------------------------------|

Solo:

e|-3-1-0-1-3-1-0~-1-0---0-1-0----0---------5^^^^3--|
B|--------------------3-------3~---1-----1---------|
G|-----------------------------------0h2-----------|
D|-------------------------------------------------|
A|-------------------------------------------------|
E|-------------------------------------------------|

                C
Um tanto quanto msculo
         G
Com M maisculo,

Vejam s os meus msculos
                   C
Que com amor cultivei


Minha pistola  de plstico
                G
E em formato cilndrico

Sempre me chamam de cnico,
                    C
Mas o porqu eu no sei


O meu bumbum era flcido,
                        G
Mas esse assunto  to mstico,

Devido ao ato cirrgico
                    C
Hoje eu me transformei


O meu andar  ertico,
                 G
Com movimentos atmicos

Sou um amante robtico
                C
Com direito a replay


Um ser humano fantstico
               G
Com poderes titnicos

Foi um moreno simptico
                   C
Por quem me apaixonei

E hoje estou to eufrico
                  G
Com mil pedaos binicos

Ontem eu era catlico
                    C
Ai, hoje eu sou um gay!!


  :  C                A A#
  : Piri piri piri pipiriri,  :
  :  C                A A#    :
2x: Piri piri piri pipiriri,  :Riffezinho
  :  C                A A#    :
  : Piri piri piri pipiriri,  :


Oh, ow, AU!!

Repete: Rifezinho

Oh, mon amour, AU!!

Repete: Rifezinho

Mercil, bocour, AU!!

          C
Abra sua mente
              G
Gay tambm  gente
             Am
baiano fala oxente
           F
E come vatap

               C
Voc pode ser gtico
                 G
Ser punk ou skinhead
                  Am
Tem gay que  muhamed
              F
Tentando camuflar

(Allah, meu bom Allah)

            C
Faa bem a barba
               G
Arranque seu bigode
              Am
Gacho tambm pode
                   F
No tem que disfarar

           C
Faa uma plstica
               G
Ai entre na ginstica
            Am
Boneca ciberntica
            F
Um robocop gay

            C
Um robocop gay
            G
Um robocop gay
               Am
Ai eu sei, eu sei
            F  C
Um robocop gay

Ai como do.
Related for Robocop Gay tab