Song name
# A B C D E F G H I J K L M N O P Q R S T U V W X Y Z

Man Man - Skin Tension tab

-------------------------------------------------------------------------------
			     Skin Tension - Man Man
-------------------------------------------------------------------------------
Tabbed by: icanmakeamess

Tuning: Standard

Verse
e|----------------------------------------------------------------|
B|---10-10---10-10---10-10---10-10---5-5---5-5---5-5---5-5--------|
G|---8--8----8--8----8--8----8--8----4-4---4-4---4-4---4-4--------|
D|-9-------9-------9-------9-------5-----5-----5-----5------------|
A|----------------------------------------------------------------|
E|----------------------------------------------------------------|

Chorus - Tiptoes on cobblestones..
e|----------------------------------------------------------------|
B|-13-12-10----------------12-10----------5-5---5-5---5-5---5-5---|
G|----------12-11-------11-------12-11----4-4---4-4---4-4---4-4---|
D|----------------14-13-----------------5-----5-----5-----5-------|
A|----------------------------------------------------------------|
E|----------------------------------------------------------------|

e|----------------------------------------------------------------|
B|-------12-10-------10----------5-5---5-5---5-5---5-5------------|
G|----11-------12-11----11-------4-4---4-4---4-4---4-4------------|
D|-13----------------------13--5-----5-----5-----5----------------|
A|----------------------------------------------------------------|
E|----------------------------------------------------------------|
Tap to rate this tab
# A B C D E F G H I J K L M N O P Q R S T U V W X Y Z