Song name
# A B C D E F G H I J K L M N O P Q R S T U V W X Y Z

Man Man - Steak Knives chords

Highlighted       Show chord diagrams
This is my first tab so let me know what I did wrong by emailing me at 
trevorlayle@gmail.com. It's pretty easy to figure out if you just listen to the song. Enjoy!

Capo on 3rd Fret

Chords:

Am
Dm


Chorus:
                         Am   Am  Am  Am
e|---6--3---------3--------3---3---3---3-------|
b|--------6--4-6----6-4----4---4---4---4-------|
g|-----------------------5-5---5---5---5-------|
d|-------------------------5---5---5---5-------|
a|-----------------------3---3---3---3---------|
E|---------------------------------------------|

              Am  Am  Am  Am
e|-------------3---3---3---3-----|
b|-----6--4----4---4---4---4-----|
g|---5-------5-5---5---5---5-----|
d|-------------5---5---5---5-----|
a|-----------3---3---3---3-------|
E|-------------------------------|



Am
Are you my pet? Or did I have to work so hard
    Dm
for nothing? I've been here before, I'll be here again.
                                    Am
My blood runs quick like ink from a squid.

Am
And are you my pet? Or did I have to work so hard
    Dm
for nothing? I know you've met The mess you'll marry.
                                        Am
He'll keep you fed but can he carry the weight of your heart?


Chorus:

                 
And everybody says that I'm a fool,

for you.


    Am
And I want some cake, and you want the high.

We both want a piece of what will quicken the rot.
         Dm
We gotta wait for the day the dead will rise;

wait for the day dust settles in our


Am
Step step, step your heart up.

Step step, stitch the holes up.

Am
Step step, step your heart up.

Step step, stitch the holes up.

Am
Step step, step your heart up.

Step step, stitch the holes up.

Am
Step step, step your heart up.

Step step, stitch the holes up.



    Am
And are you my pet? Or did I have to work so hard
    Dm                  Am
for nothing? Uh huh huh 


Chorus:

And everybody says that I'm a fool,

for wanting you.

and everybody says that I'm a fool,

for loving you.

and everybody says that I'm a fool,

for you.
Tap to rate this tab
# A B C D E F G H I J K L M N O P Q R S T U V W X Y Z