Song name
# A B C D E F G H I J K L M N O P Q R S T U V W X Y Z

Man On Earth - Grow tab

-------------------------------------------------------------------------------
			     grow - man on earth.
-------------------------------------------------------------------------------
Tabbed by: funyguy1357
Email:funyguy1357@yahoo.com

Tuning: standard.

clean:
e|------------------------------------------|
B|-------10--12------10----------13--12-----|
G|---12-----------12----12--12--------------|
D|------------------------------------------|
A|------------------------------------------|
E|------------------------------------------|

dist.:
e|---------------------------------------------------------------------------|
B|---------------3-----------------------------------------------------------|
G|---------------------------------0-----------------------------------------|
D|---4-5-4-5-----------4-5-4---------------4-5-4-5----0------5/7---7/9-------|
A|---------------------------5-----------------------------------------------|
E|---------------------------------------------------------------------------|

e|------------|
B|------------|
G|------------|
D|---b9--b--b-|               
A|------------|               
E|------------|

or

e|-------------------|
B|-------------------|
G|-------------------|
D|---9h10p9h10p9h10--|
A|-------------------|
E|-------------------|

e|--------------------------------------|
B|----------------8-------------10------|
G|--------------------------------------|
D|---9-10-9-10-----------10/12------9---|
A|--------------------------------------|
E|--------------------------------------|

e|--------------------------------------|
B|--------------------------------------|
G|--------------------------------------|
D|---3--5--7--5h7p5----2---2/4---5--7---|
A|--------------------------------------|
E|--------------------------------------|

clean:
e|------------------------------------------|
B|-------10--12------10----------13--12-----|
G|---12-----------12----12--12--------------|
D|------------------------------------------|
A|------------------------------------------|
E|------------------------------------------|


-comments/suggestions are welcome. thanks.



| /  slide up
| \  slide down
| h  hammer-on
| p  pull-off
| ~  vibrato
| +  harmonic
| x  Mute note
===============================================================================
Tap to rate this tab
 
# A B C D E F G H I J K L M N O P Q R S T U V W X Y Z