Song name
# A B C D E F G H I J K L M N O P Q R S T U V W X Y Z

Man Or Astro Man - Popcorn Crabula tab

"Popcorn Crabula"
           By: Man or Astro-Man?
           Album: Destroy All Astro-Men!
           Transcribed by chris koza


     One of my PERSONAL favorite chords as the intro

         Part 1
       |-------------------------------|
       |-------------------------------|
       |-------------------------------|
       |-2~--2~--2~--2~----------------|
       |-2~--2~--2~--2~----------------|
       |-------------------------------|

         Part 2
       |-------------------------------|
       |-------------------------------|
       |-------------------------------|
       |-------------------------------|
       |-------------------1-1-0-0-----|
       |-0-1-0-0-1-0-0-0-1-------------|


       |--------------------------------|R
       |--------------------------------|E
       |--------------------------------|P
       |--------------------------------|E
       |--------------------------------|A
       |-0-1-0-0-1-0-0-0-1-3-3-1-1------|T

           Part 3
       |-------------------------------|
       |-------------------------------|
       |-------------------------------|
       |-------2-2----------2----------|
       |-1-1-1-----1-1-1----2----------|
       |-----------------0-------------|


       |--------------------5-----------|
       |--------------------5-----------|
       |--------------------5-----------|
       |-------2-2----------------------|
       |-1-1-1-----1-1-1----------------|
       |-----------------0--------------|

       Break with weird string scratching,

       then back into part 2, and part 3.

         Part 4
       |---------------------------------|
       |---------------------------------|
       |---------------------------------|
       |---------------------------------|
       |----------------------5--5-5-----|
       |-7--7-7-5-5-5-5-7-7-7------------|


       |----------------------------------|R
       |----------------------------------|E
       |----------------------------------|P
       |----------------------------------|E
       |----------------------------------|A
       |-7--7-7-5-5--5--2-2-2-2--2-2------|T


       Repeat part 3, but end like this:

       |---------------------------------|
       |---------------------------------|
       |---------------------------------|
       |--------2~-----------------------|
       |-0------2~-----------------------|
       |---3-1---------------------------|


       Thats it! Have fun! Or else.


        the_g_bot@hotmail.com
     tabbed 2001 on luna base alpha
        http://axafunclub.cjb.net

   Please ask permission before using on a site!
Tap to rate this tab
 
# A B C D E F G H I J K L M N O P Q R S T U V W X Y Z