Song name
# A B C D E F G H I J K L M N O P Q R S T U V W X Y Z

Man Or Astro Man - Alien Visitors tab

Tabbed by Brian (Ansigod) McCall  5-19-96
Tweaked by DjChrispy (Djchrispy@gmail.com) (part *4)
The Previous Part 4 of this song I felt was incorrect so i fixed it up!

ALIEN VISITORS - by Man...or Astro-Man?
===== ========   available on the album "Is It...Man...or Astro-man?"

Intro

|-------------------------------------------------------------------|
|-------------------------------------------------------------------|
|-------------------------------------------------------------------|
|-------------------------------------------------------------------|
|-0-0-0-0-0-0-0-0-0-0-0-0-0-0...------------------------------------|
|-------------------------------------------------------------------|

*1

|-------------------------------------------------------------------|
|-------------------------------------------------------------------|
|----3-3-2----------------------3-3-2-------------------------------|
|----------0-3--3-3-2-----------------0-3--3-3-2--------------------|
|-0------------------------3-0------------------------3-------------|
|----------------------0-3------------------------0-3---------------|
                            ^repeat
*2

|-------------------------------------------------------------------|
|-------------------------------------------------------------------|
|-7-7-7--7-7-7-7-6-6-6-6--------------------------------------------|
|-7-7-7--7-7-7-7-6-6-6-6--------------------------------------------|
|-5-5-5--5-5-5-5-4-4-4-4-----3--------------------------------------|
|------------------------0-3----------------------------------------|

Repeat *1

*3

|-----------------------------------------|-------------------------|
|-----------------------------------------|-------------------------|
|---------------------------7-5-5-7-5-5-7-|-9--10--11--12-----------|
|-7-------6--------7--------7-5-5-7-5-5-7-|-9--10--11--12-----------|
|-7-------6--------7--------5-3-3-5-3-3-5-|-7---8---9--10-----------|
|-5-------4--------5----------------------|-------------------------|

*4

e|------------------------------------------------------------------|
B|-2-----------2----------------------------------------------------|
G|-2-----------2----------------------------------------------------|
D|-2--5--------2--5-------------------------------------------------|
A|----3--3--------3--5----------------------------------------------|
E|-------1-----------3----------------------------------------------|
Tap to rate this tab
 
# A B C D E F G H I J K L M N O P Q R S T U V W X Y Z