Song name
# A B C D E F G H I J K L M N O P Q R S T U V W X Y Z

Man Or Astro Man - Munsters Theme tab

Tabbed by Brian (Ansigod) McCall  5/12/97

MUNSTERS THEME - as played by Man...or Astro-man?
======== =====   available on Intraveinous Television Continuum

*1

|--------------------------------------------------------------------|
|--------------------------------------------------------------------|
|--------------------------------------------------------------------|
|--------------------------------------------------------------------|
|---------0h2-2-2-2---------0h2-2-2-2--------------------------------|
|-0-0-0-0-----------0-0-0-0------------------------------------------|

*2

|-----------------------------------------|--------------------------|
|------------5----------------------------|--------------------------|
|----0-2-3-4----5-4-2--4-2-0--2-0---------|--------------------------|
|-2-------------------------------4-2-0-2-|-2-2-2--------------------|
|-----------------------------------------|-------0h2-2-2-2----------|
|-----------------------------------------|-----------------0-0-0-0--|

|-----------|--------------------------------------------------------|
|-----------|------------5-------------------------------------------|
|-----------|----0-2-3-4----5-4-2--2-2-2h4-4--2-0--------------------|
|-----------|-2-----------------------------------0-2-(2-2-2-2-0--)--|
|-0h2-2-2-2-|--------------------------------------------------------|
|-----------|--------------------------------------------------------|

*3

|----------------------------------5--3-2-3-0-2----------------------|
|-----------------------------------------------4--------------------|
|-7--7--7--5--4-5-2-4-0--0-0-2--2------------------------------------|
|--------------------------------------------------------------------|
|--------------------------------------------------------------------|
|--------------------------------------------------------------------|

The rest is almost the same as tabbed above just repeated a little
different.  Enjoy this classic!
Tap to rate this tab
 
# A B C D E F G H I J K L M N O P Q R S T U V W X Y Z