Song name
# A B C D E F G H I J K L M N O P Q R S T U V W X Y Z

Man Overboard - Real Talk tab

Artist    : Man Overboard
Album     : Real Talk (2010)

Tabbed by : Boris Paskhaver (bigbadb)
Email     : bp771@nyu.edu


Tuning: Eb (Half Step Down)


Track Listing:

I.    Real Talk
II.   World Favorite
III.  Fantasy Girl
IV.   Parting Gift
V.    Darkness Everybody
VI.   She's Got Her Own Man Now
VII.  Al Sharpton
VIII. Montrose
IX.   FM Dial Style
X.    I Like You
XI.   Septemberism
XII.  Sidekick

**  DEFEND POP PUNK  **

-----------------------------------------------------------------------------
				I. REAL TALK
-----------------------------------------------------------------------------


VERSE ONE (0:01)

   (x1)
eb|--------------------------------------------------------------------------|
Bb|--------------------------------------------------------------------------|
Gb|--3-3-3-3-3-3-3---7-7-7-7-7-7-7-7---3-3-3-3-3-3-3-3---7-7-7-7-5-5-5-5-----|
Db|--3-3-3-3-3-3-3---7-7-7-7-7-7-7-7---3-3-3-3-3-3-3-3---7-7-7-7-5-5-5-5-----|
Ab|--1-1-1-1-1-1-1---5-5-5-5-5-5-5-5---1-1-1-1-1-1-1-1---5-5-5-5-3-3-3-3-----|
Eb|--------------------------------------------------------------------------|
                      You could say     two things       Call me sometime

   (x1)
eb|--------------------------------------------------------------------------|
Bb|--------------------------------------------------------------------------|
Gb|--3-3-3-3-3-3-3---7-7-7-7-7-7-7-7---5-5-5-5-5-5-5-5-5-5-5-5-5-5-5-5-------|
Db|--3-3-3-3-3-3-3---7-7-7-7-7-7-7-7---5-5-5-5-5-5-5-5-5-5-5-5-5-5-5-5-------|
Ab|--1-1-1-1-1-1-1---5-5-5-5-5-5-5-5---3-3-3-3-3-3-3-3-3-3-3-3-3-3-3-3-------|
Eb|--------------------------------------------------------------------------|
       hang out    or maybe I could     help   you   out

   (x2)
eb|--------------------------------------------------------------------------|
Bb|--------------------------------------------------------------------------|
Gb|--7-7-7-7-----5-5-5-5-----3-3-3-3-3-3-3-3---------------------------------|
Db|--7-7-7-7-----5-5-5-5-----3-3-3-3-3-3-3-3---------------------------------|
Ab|--5-5-5-5-----3-3-3-3-----1-1-1-1-1-1-1-1---------------------------------|
Eb|--------------------------------------------------------------------------|
  1  Stop acting like you'll ever see me again
  2                          And like I don't

PRECHORUS ONE (0:20)

   (x1)
eb|--------------------------------------------------------------------------|
Bb|--------------------------------------------------------------------------|
Gb|--3-3-3-3-3-3-3-3-3-3-3-3-3-3-3---7-7-7-7-7-7-7-7-7-7-7-7-7-7-7-7---------|
Db|--3-3-3-3-3-3-3-3-3-3-3-3-3-3-3---7-7-7-7-7-7-7-7-7-7-7-7-7-7-7-7---------|
Ab|--1-1-1-1-1-1-1-1-1-1-1-1-1-1-1---5-5-5-5-5-5-5-5-5-5-5-5-5-5-5-5---------|
Eb|--------------------------------------------------------------------------|
       I understand how it works      On paper, we're similar people

   (x1)
eb|--------------------------------------------------------------------------|
Bb|--------------------------------------------------------------------------|
Gb|--3-3-3-3-3-3-3-3-3-3-3-3-3-3-3---7-7-7-7-7-7-7-7-7-7-7-7-5---5-----------|
Db|--3-3-3-3-3-3-3-3-3-3-3-3-3-3-3---7-7-7-7-7-7-7-7-7-7-7-7-5---5-----------|
Ab|--1-1-1-1-1-1-1-1-1-1-1-1-1-1-1---5-5-5-5-5-5-5-5-5-5-5-5-3---3-----------|
Eb|--------------------------------------------------------------------------|
       I understand how it works           On paper, we're similar people

CHORUS ONE (0:33)

   (x1)
eb|--------------------------------------------------------------------------|
Bb|--------------------------------------------------------------------------|
Gb|--7-7-7-7-----5-5-5-5-----3-3-3-3-3-3-3-3---------------------------------|
Db|--7-7-7-7-----5-5-5-5-----3-3-3-3-3-3-3-3---------------------------------|
Ab|--5-5-5-5-----3-3-3-3-----1-1-1-1-1-1-1-1---------------------------------|
Eb|--------------------------------------------------------------------------|
           But we're different people

   (x1)
eb|--------------------------------------------------------------------------|
Bb|--------------------------------------------------------------------------|
Gb|--7-7-7-7-----5-5-5-5-----3-3-3-3---3--3----------------------------------|
Db|--7-7-7-7-----5-5-5-5-----3-3-3-3---3--3----------------------------------|
Ab|--5-5-5-5-----3-3-3-3-----1-1-1-1---1--1----------------------------------|
Eb|--------------------------------------------------------------------------|
             We're different people

VERSE TWO (0:39):

   (x1)
eb|--------------------------------------------------------------------------|
Bb|--------------------------------------------------------------------------|
Gb|--3-3-3-3-3-3-3---7-7-7-7-7-7-7-7---3-3-3-3-3-3-3-3---7-7-7-7-5-5-5-5-----|
Db|--3-3-3-3-3-3-3---7-7-7-7-7-7-7-7---3-3-3-3-3-3-3-3---7-7-7-7-5-5-5-5-----|
Ab|--1-1-1-1-1-1-1---5-5-5-5-5-5-5-5---1-1-1-1-1-1-1-1---5-5-5-5-3-3-3-3-----|
Eb|--------------------------------------------------------------------------|
                     You're tearing      walls   I       built until they

   (x1)
eb|--------------------------------------------------------------------------|
Bb|--------------------------------------------------------------------------|
Gb|--3-3-3-3-3-3-3---7-7-7-7-7-7-7-7---5-5-5-5-5-5-5-5-5-5-5-5-5-5-5-5-------|
Db|--3-3-3-3-3-3-3---7-7-7-7-7-7-7-7---5-5-5-5-5-5-5-5-5-5-5-5-5-5-5-5-------|
Ab|--1-1-1-1-1-1-1---5-5-5-5-5-5-5-5---3-3-3-3-3-3-3-3-3-3-3-3-3-3-3-3-------|
Eb|--------------------------------------------------------------------------|
     scraped the      wrecking crew     welcome you            when the

   (x1)
eb|--------------------------------------------------------------------------|
Bb|--------------------------------------------------------------------------|
Gb|--7-7-7-7-----5-5-5-5-----3-----7-7-7-7-----5-5-5-5-----3-3-3-3-3-3-3-3---|
Db|--7-7-7-7-----5-5-5-5-----3-----7-7-7-7-----5-5-5-5-----3-3-3-3-3-3-3-3---|
Ab|--5-5-5-5-----3-3-3-3-----1-----5-5-5-5-----3-3-3-3-----1-1-1-1-1-1-1-1---|
Eb|--------------------------------------------------------------------------|
     days slow    down    summer                 I did two years in your

PRECHORUS TWO (0:58):

   (x1)
eb|--------------------------------------------------------------------------|
Bb|--------------------------------------------------------------------------|
Gb|--3-3-3-3-3-3-3-3-3-3-3-3-3-3-3---7-7-7-7-7-7-7-7-7-7-7-7-7-7-7-7---------|
Db|--3-3-3-3-3-3-3-3-3-3-3-3-3-3-3---7-7-7-7-7-7-7-7-7-7-7-7-7-7-7-7---------|
Ab|--1-1-1-1-1-1-1-1-1-1-1-1-1-1-1---5-5-5-5-5-5-5-5-5-5-5-5-5-5-5-5---------|
Eb|--------------------------------------------------------------------------|
      Your jaws of steel never        It's haunting the way silence

   (x1)
eb|--------------------------------------------------------------------------|
Bb|--------------------------------------------------------------------------|
Gb|--3-3-3-3-3-3-3-3-3-3-3-3-3-3-3---7-7-7-7-7-7-7-7-7-7-7-7-5---5-----------|
Db|--3-3-3-3-3-3-3-3-3-3-3-3-3-3-3---7-7-7-7-7-7-7-7-7-7-7-7-5---5-----------|
Ab|--1-1-1-1-1-1-1-1-1-1-1-1-1-1-1---5-5-5-5-5-5-5-5-5-5-5-5-3---3-----------|
Eb|--------------------------------------------------------------------------|
      If I fucked up long ago          I'm sorry, I didn't realize

CHORUS TWO (1:11):

   (x2)
eb|--------------------------------------------------------------------------|
Bb|--------------------------------------------------------------------------|
Gb|--7-7-7-7-----5-5-5-5-----3-3-3-3-3-3-3-3---------------------------------|
Db|--7-7-7-7-----5-5-5-5-----3-3-3-3-3-3-3-3---------------------------------|
Ab|--5-5-5-5-----3-3-3-3-----1-1-1-1-1-1-1-1---------------------------------|
Eb|--------------------------------------------------------------------------|
  1       I didn't realize it counted
  2       I didn't realize it counted

BRIDGE (1:18)

   (x1)
eb|--------------------------------------------------------------------------|
Bb|--------------------------------------------------------------------------|
Gb|--------------------------------------------------------------------------|
Db|------5-----5---5-------8-----8---8-------5-----5---5-------8-----8---8---|
Ab|--3-3---3-3---3-----6-6---6-6---6-----3-3---3-3---3-----6-6---6-6---6-----|
Eb|--------------------------------------------------------------------------|

   (x1)
eb|--------------------------------------------------------------------------|
Bb|--------------------------------------------------------------------------|
Gb|--5---5-5--5-5-5----8---8-8--8-8-8----5---5-5--5-5-5-------3-------5------|
Db|--5---5-5--5-5-5----8---8-8--8-8-8----5---5-5--5-5-5-------3-------5------|
Ab|--3---3-3--3-3-3----6---6-6--6-6-6----3---3-3--3-3-3-------1------ 3------|
Eb|--------------------------------------------------------------------------|
                           Just wouldn't work out             That's

FINAL CHORUS (1:30)

    (x3)
eb|--------------------------------------------------------------------------|
Bb|--------------------------------------------------------------------------|
Gb|--7-7-7-7-----5-5-5-5-----3-3-3-3-3-3-3-3---------------------------------|
Db|--7-7-7-7-----5-5-5-5-----3-3-3-3-3-3-3-3---------------------------------|
Ab|--5-5-5-5-----3-3-3-3-----1-1-1-1-1-1-1-1---------------------------------|
Eb|--------------------------------------------------------------------------|
  1    That's what I'm telling myself (That we're just two different people)
  2    That's what I'm telling myself (That we're just two different people)
  3    That's what I'm telling myself (That we're just two different people)

   (x1)
eb|----------------------------------------------------------------------------|
Bb|----------------------------------------------------------------------------|
Gb|--7-7---------5-5----------------3------------------------------------------|
Db|--7-7---------5-5----------------3--------  F E E D B A C K  ---------------|
Ab|--5-5---------3-3----------------1------------------------------------------|
Eb|----------------------------------------------------------------------------|
     That's what telling my----------------------------------------------------|self!



-----------------------------------------------------------------------------
				II. WORLD FAVORITE
-----------------------------------------------------------------------------


VERSE ONE (0:00):

   (x2)
eb|---------------------------------|------------------------------------------|
Bb|---------------------------------|------------------------------------------|
Gb|---------------------------------|-------------------9-9-9-9-9-9-9-9--------|
Db|--7-7-----7----------------------|--7-7-7-7-7-7-7-7--9-9-9-9-9-9-9-9--------|
Ab|--5-5-----5-2-2-----2-4-4--(x3)--|--7-7-7-7-7-7-7-7--7-7-7-7-7-7-7-7--------|
Eb|------------0-0-----0-2-2--------|--5-5-5-5-5-5-5-5-------------------------|
     P.M-----------------------------------------------------------------------|
  1    It's 11:30  at night            wishing you were here
  2    I hope I didn't annoy             Wishing I could feel too

   GUITAR TWO plays an alternate version. Same chords, higher up the neck.
   If playing solo, see what sounds better to you.
eb|---------------------------------|------------------------------------------|
Bb|---------------------------------|------------------------------------------|
Gb|---------------------------------|-------------------9-9-9-9-9-9-9-9--------|
Db|--7-7-----7-9-9-----9-11-11------|--7-7-7-7-7-7-7-7--9-9-9-9-9-9-9-9--------|
Ab|--5-5-----5-7-7-----7--9--9-(x3)-|--7-7-7-7-7-7-7-7--7-7-7-7-7-7-7-7--------|
Eb|---------------------------------|--5-5-5-5-5-5-5-5-------------------------|
     P.M-----------------------------------------------------------------------|

PRECHORUS ONE (0:24):

   (x1)
eb|----------------------------------------------------------------------------|
Bb|----------------------------------------------------------------------------|
Gb|--7-----------------------------7----------------9-9-9-9-9------------------|
Db|--7--------------4--------------7---------7------9-9-9-9-9------------------|
Ab|--5--------------4--------------5---------7------7-7-7-7-7------------------|
Eb|-----------------2------------------------5---------------------------------|
                                                    P.M------------------------|
                   I miss her               I wanted to tell her

CHORUS ONE (0:37):

   (x1)
eb|--------------------------------------------------------------------------|
Bb|--------------------------------------------------------------------------|
Gb|--7-7-7-7-7-7-7-7-7-7-7-7-7-7-7-7-----------------------------------------|
Db|--7-7-7-7-7-7-7-7-7-7-7-7-7-7-7-7--7-7-7-7-7-7-7-7-7-7-7-7-7-7-7-7--------|
Ab|--5-5-5-5-5-5-5-5-5-5-5-5-5-5-5-5--7-7-7-7-7-7-7-7-7-7-7-7-7-7-7-7--------|
Eb|-----------------------------------5-5-5-5-5-5-5-5-5-5-5-5-5-5-5-5--------|
      I spoke to myself                         And I made a promise

   (x1)
eb|--------------------------------------------------------------------------|
Bb|--------------------------------------------------------------------------|
Gb|--7-7-7-7-7-7-7-7-7-7-7-7-7-7-7-7-----------------------------------------|
Db|--7-7-7-7-7-7-7-7-7-7-7-7-7-7-7-7--4-4-4-4-4-4-4-4-2-2-2-2-2-2-2-2--------|
Ab|--5-5-5-5-5-5-5-5-5-5-5-5-5-5-5-5--4-4-4-4-4-4-4-4-2-2-2-2-2-2-2-2--------|
Eb|-----------------------------------2-2-2-2-2-2-2-2-0-0-0-0-0-0-0-0--------|
      That I would never fuck up                 And   to  be  honest

   (x2)
eb|--------------------------------------------------------------------------|
Bb|--------------------------------------------------------------------------|
Gb|--7-7-7----7-7-7----7-7-7----7-7-7----------------------------------------|
Db|--7-7-7----7-7-7----7-7-7----7-7-7----4-4-4----4-4-4----4-4-4---x-7-------|
Ab|--5-5-5----5-5-5----5-5-5----5-5-5----4-4-4----4-4-4----4-4-4---x-7-------|
Eb|--------------------------------------2-2-2----2-2-2----2-2-2---x-5-------|
  1    I      think     you're my         girl    I've     ever met, yeah
  2    I      think     you're my         girl    I've     ever met

VERSE TWO (1:01):

   (x2)
eb|---------------------------------|------------------------------------------|
Bb|---------------------------------|------------------------------------------|
Gb|---------------------------------|-------------------9-9-9-9-9-9-9-9--------|
Db|--7-7-----7----------------------|--7-7-7-7-7-7-7-7--9-9-9-9-9-9-9-9--------|
Ab|--5-5-----5-2-2-----2-4-4--(x3)--|--7-7-7-7-7-7-7-7--7-7-7-7-7-7-7-7--------|
Eb|------------0-0-----0-2-2--------|--5-5-5-5-5-5-5-5-------------------------|
     P.M-----------------------------------------------------------------------|
  1  I bought a new notebook              Wish it was my own
  2  Cause I kinda hate                  out  there in the unknown

PRECHORUS TWO (Chugga Chug Chug) (1:26):

   (x1)
eb|----------------------------------------------------------------------------|
Bb|----------------------------------------------------------------------------|
Gb|--7--7-7-7-7-7-7-7-7-7-7-7-7-7-7--------------------------------------------|
Db|--7--7-7-7-7-7-7-7-7-7-7-7-7-7-7---4--4-4-4-4-4-4-4-4-4-4-4-4-4-4-----------|
Ab|--5--5-5-5-5-5-5-5-5-5-5-5-5-5-5---4--4-4-4-4-4-4-4-4-4-4-4-4-4-4-----------|
Eb|-----------------------------------2--2-2-2-2-2-2-2-2-2-2-2-2-2-2-----------|
        P.M------------------------|     P.M-----------------------------------|
                                     I     miss    her
   (x1)
eb|----------------------------------------------------------------------------|
Bb|----------------------------------------------------------------------------|
Gb|--7--7-7-7-7-7-7-7-7-7-7-7-7-7-7-------------------9-9-9-9-9----------------|
Db|--7--7-7-7-7-7-7-7-7-7-7-7-7-7-7---7--7-7-7-7-7-7--9-9-9-9-9----------------|
Ab|--5--5-5-5-5-5-5-5-5-5-5-5-5-5-5---7--7-7-7-7-7-7--7-7-7-7-7----------------|
Eb|-----------------------------------5--5-5-5-5-5-5---------------------------|
        P.M------------------------|     P.M-----------------------------------|
                                          I wanted to tell her

CHORUS TWO (1:38):

   (x1)
eb|--------------------------------------------------------------------------|
Bb|--------------------------------------------------------------------------|
Gb|--7-7-7-7-7-7-7-7-7-7-7-7-7-7-7-7-----------------------------------------|
Db|--7-7-7-7-7-7-7-7-7-7-7-7-7-7-7-7--7-7-7-7-7-7-7-7-7-7-7-7-7-7-7-7--------|
Ab|--5-5-5-5-5-5-5-5-5-5-5-5-5-5-5-5--7-7-7-7-7-7-7-7-7-7-7-7-7-7-7-7--------|
Eb|-----------------------------------5-5-5-5-5-5-5-5-5-5-5-5-5-5-5-5--------|
     I spoke to myself                         And I made a promise

   (x1)
eb|--------------------------------------------------------------------------|
Bb|--------------------------------------------------------------------------|
Gb|--7-7-7-7-7-7-7-7-7-7-7-7-7-7-7-7-----------------------------------------|
Db|--7-7-7-7-7-7-7-7-7-7-7-7-7-7-7-7--4-4-4-4-4-4-4-4-2-2-2-2---7------------|
Ab|--5-5-5-5-5-5-5-5-5-5-5-5-5-5-5-5--4-4-4-4-4-4-4-4-2-2-2-2---7------------|
Eb|-----------------------------------2-2-2-2-2-2-2-2-0-0-0-0---5------------|
                                                      P.M----|
     That I would never fuck up                 And   to  be  honest

   (x2)
eb|--------------------------------------------------------------------------|
Bb|--------------------------------------------------------------------------|
Gb|--7-7-7----7-7-7----7-7-7----7-7-7----------------------------------------|
Db|--7-7-7----7-7-7----7-7-7----7-7-7----4-4-4----4-4-4----4-4-4---x-7-------|
Ab|--5-5-5----5-5-5----5-5-5----5-5-5----4-4-4----4-4-4----4-4-4---x-7-------|
Eb|--------------------------------------2-2-2----2-2-2----2-2-2---x-5-------|
  1   I       think     you're my         girl     I've     ever met, yeah
  2   I       think     you're my         girl     I've     ever met

BRIDGE (2:01):

   (x1)
eb|----------------------------------------------------------------------------------|
Bb|----------------------------------------------------------------------------------|
Gb|--7-7-7-7-7-7-7-7-7-7-7-7-7-9-9-9----11-11-11-11-11-11-11-11-11-11-11-11-11-9-9-9-|
Db|--7-7-7-7-7-7-7-7-7-7-7-7-7-9-9-9----11-11-11-11-11-11-11-11-11-11-11-11-11-9-9-9-|
Ab|--5-5-5-5-5-5-5-5-5-5-5-5-5-7-7-7-----9--9--9--9--9--9--9--9--9--9--9--9--9-7-7-7-|
Eb|----------------------------------------------------------------------------------|
                                          Girl,   girl,    girl

   (x1)
eb|--------------------------------------------------------------------------|
Bb|--------------------------------------------------------------------------|
Gb|--7-7-7-7-7-7-7-7-7-7-7-7-7-9-9-9-----------------------9-9----9-9--------|
Db|--7-7-7-7-7-7-7-7-7-7-7-7-7-9-9-9----7-7-7-7-7-7-7-7----9-9----9-9--------|
Ab|--5-5-5-5-5-5-5-5-5-5-5-5-5-7-7-7----7-7-7-7-7-7-7-7----7-7----7-7--------|
Eb|-------------------------------------5-5-5-5-5-5-5-5----------------------|
                                          Girl,       girl,     girl

FINAL CHORUS (2:14):

   (x1)
eb|--------------------------------------------------------------------------|
Bb|--------------------------------------------------------------------------|
Gb|--7-7-7-7-7-7-7-7-7-7-7-7-7-7-7-7-----------------------------------------|
Db|--7-7-7-7-7-7-7-7-7-7-7-7-7-7-7-7--7-7-7-7-7-7-7-7-7-7-7-7-7-7-7-7--------|
Ab|--5-5-5-5-5-5-5-5-5-5-5-5-5-5-5-5--7-7-7-7-7-7-7-7-7-7-7-7-7-7-7-7--------|
Eb|-----------------------------------5-5-5-5-5-5-5-5-5-5-5-5-5-5-5-5--------|
     I spoke to myself                         And I made a promise

   (x1)
eb|--------------------------------------------------------------------------|
Bb|--------------------------------------------------------------------------|
Gb|--7-7-7-7-7-7-7-7-7-7-7-7-7-7-7-7-----------------------------------------|
Db|--7-7-7-7-7-7-7-7-7-7-7-7-7-7-7-7--4-4-4-4-4-4-4-4-2-2-2-2-2-2-2-2--------|
Ab|--5-5-5-5-5-5-5-5-5-5-5-5-5-5-5-5--4-4-4-4-4-4-4-4-2-2-2-2-2-2-2-2--------|
Eb|-----------------------------------2-2-2-2-2-2-2-2-0-0-0-0-0-0-0-0--------|
     That I would never fuck up                 And   to  be  honest

   (x2)
eb|--------------------------------------------------------------------------|
Bb|--------------------------------------------------------------------------|
Gb|--7-7-7-7-7-7-7-7-7-7-7-7-7-7-7-7-----------------------------------------|
Db|--7-7-7-7-7-7-7-7-7-7-7-7-7-7-7-7--4-4-4-4-4-4-4-4-4-4-4-4-4-7-7-7--------|
Ab|--5-5-5-5-5-5-5-5-5-5-5-5-5-5-5-5--4-4-4-4-4-4-4-4-4-4-4-4-4-7-7-7--------|
Eb|-----------------------------------2-2-2-2-2-2-2-2-2-2-2-2-2-5-5-5--------|
  1   I       think     you're my      girl     I've     ever met, yeah
  2   I       think     you're my      girl     I've     ever met

   (x2)
eb|--------------------------------------------------------------------------|
Bb|--------------------------------------------------------------------------|
Gb|--7-7-7-7-7-7-7-7-7-7-7-7-7-7-7-7-----------------------------------------|
Db|--7-7-7-7-7-7-7-7-7-7-7-7-7-7-7-7--4-4-4-4-4-4-4-4-4-4-4-4-4-4-4-4--------|
Ab|--5-5-5-5-5-5-5-5-5-5-5-5-5-5-5-5--4-4-4-4-4-4-4-4-4-4-4-4-4-4-4-4--------|
Eb|-----------------------------------2-2-2-2-2-2-2-2-2-2-2-2-2-2-2-2--------|
  1   tell her,    I just wanted to    tell her            I just
  2   tell her,    I just wanted to    tell her

AND END WITH (2:50)

eb|--------|      eb|--------|
Bb|--------|      Bb|--------|
Gb|-----2--|      Gb|--9-----|
Db|--2--2--|  OR  Db|--9--7--|
Ab|--2--0--|      Ab|--7--7--|
Eb|--0-----|      Eb|-----5--|
   OPTION A          OPTION B



-----------------------------------------------------------------------------
				III. FANTASY GIRL
-----------------------------------------------------------------------------


INTRO / VERSE ONE (0:01):

   (x6 - x2 for Intro + x4 for Verse One)
eb|----------------------------------------------------------------------------|
Bb|----------------------------------------------------------------------------|
Gb|----------------------------------------------------------------------------|
Db|--6-----6---------6-----2---------2---------2-2-2---------------------------|
Ab|--4-4-4-4-4-4-4-4-4-4-4-0-0-0-0-0-0-0-0-0-0-0-0-0---------------------------|
Eb|----------------------------------------------------------------------------|
       P.M   P.M----|  P.M   P.M----|  P.M-------------------------------------|
  3    She called me kinda    late last night
  4    And all those pretty little words       came
  5    She fell into my arms again
  6       lie here forever

eb|----------------------------------------------------------------------------|
Bb|----------------------------------------------------------------------------|
Gb|----------------------------------------------------------------------------|
Db|--4-----4---------4-----4---------4---------4-4-4---------------------------|
Ab|--2-2-2-2-2-2-2-2-2-2-2-2-2-2-2-2-2-2-2-2-2-2-2-2---------------------------|
Eb|----------------------------------------------------------------------------|
       P.M   P.M----|  P.M   P.M----|  P.M-------------------------------------|
  3          Said that she knew everything
  4    out                     And just like I planned
  5         and I can pretend           that i won't
  6                                            and wait for the end

PRECHORUS ONE (0:41)

   (x1)
eb|--------------------------------------------------------------------------|
Bb|--------------------------------------------------------------------------|
Gb|--6-------------2-------------4----------------6------2-------------------|
Db|--6--  HOLD  ---2--  HOLD  ---4  HOLD  --------6------2-------------------|
Ab|--4-----------4-0-----------0-2----------4-4-4-4----4-0--- PICK ----------|
Eb|--------------------------------------------------------- SCRAPE ---------|
                                           P.M.--|

CHORUS ONE (0:55)

   (x4)
eb|--------------------------------------------------------------------------|
Bb|--------------------------------------------------------------------------|
Gb|--6-6-6-6-6-6-6-6--9-9-9-9-9-9-9-9--2-2-2-2-2-2-2-2--4-4-4-4-4-4-4-4------|
Db|--6-6-6-6-6-6-6-6--9-9-9-9-9-9-9-9--2-2-2-2-2-2-2-2--4-4-4-4-4-4-4-4------|
Ab|--4-4-4-4-4-4-4-4--7-7-7-7-7-7-7-7--0-0-0-0-0-0-0-0--2-2-2-2-2-2-2-2------|
Eb|--------------------------------------------------------------------------|
  1   You're right     should be          Tonight, tonight, I could
  2   Just gave up     stupid little    world
  3   You're right     was a fake       You're right,  I am in denial
  4   Just go home    perfect little    girl            You're my fantasy girl

VERSE TWO (1:21):

   (x6 - x2 for intro riff, x4 for Verse Two)
eb|----------------------------------------------------------------------------|
Bb|----------------------------------------------------------------------------|
Gb|----------------------------------------------------------------------------|
Db|--6-----6---------6-----2---------2---------2-2-2---------------------------|
Ab|--4-4-4-4-4-4-4-4-4-4-4-0-0-0-0-0-0-0-0-0-0-0-0-0---------------------------|
Eb|----------------------------------------------------------------------------|
       P.M   P.M----|  P.M   P.M----|  P.M-------------------------------------|
  3    said, she crept back up inside my bed
  4    all those words that made me fall came out
  5    everything just fell right back
  6    lie with her all night now and wait to

eb|----------------------------------------------------------------------------|
Bb|----------------------------------------------------------------------------|
Gb|----------------------------------------------------------------------------|
Db|--4-----4---------4-----4---------4---------4-4-4---------------------------|
Ab|--2-2-2-2-2-2-2-2-2-2-2-2-2-2-2-2-2-2-2-2-2-2-2-2---------------------------|
Eb|----------------------------------------------------------------------------|
       P.M   P.M----|  P.M   P.M----|  P.M-------------------------------------|
  3             said that she missed everything
  4                            and just like a trap
  5         and we were on track               and I
  6                                        wait to react

PRECHORUS TWO (2:01)

   (x1)
eb|--------------------------------------------------------------------------|
Bb|--------------------------------------------------------------------------|
Gb|--6-------------2-------------4----------------6------2-------------------|
Db|--6--  HOLD  ---2--  HOLD  ---4  HOLD  --------6------2-------------------|
Ab|--4-----------4-0-----------0-2----------4-4-4-4----4-0--- PICK ----------|
Eb|--------------------------------------------------------- SCRAPE ---------|
                                           P.M.--|

CHORUS TWO (2:14)

   (x4)
eb|--------------------------------------------------------------------------|
Bb|--------------------------------------------------------------------------|
Gb|--6-6-6-6-6-6-6-6--9-9-9-9-9-9-9-9--2-2-2-2-2-2-2-2--4-4-4-4-4-4-4-4------|
Db|--6-6-6-6-6-6-6-6--9-9-9-9-9-9-9-9--2-2-2-2-2-2-2-2--4-4-4-4-4-4-4-4------|
Ab|--4-4-4-4-4-4-4-4--7-7-7-7-7-7-7-7--0-0-0-0-0-0-0-0--2-2-2-2-2-2-2-2------|
Eb|--------------------------------------------------------------------------|
  1   You're right     should be          Tonight, tonight, I could
  2   Just gave up     stupid little    world
  3   You're right     was a fake       You're right,  I am in denial
  4   Just go home    perfect little    girl            You're my fantasy girl

OUTRO (2:40)

   (x2)
eb|----------------------------------------------------------------------------|
Bb|----------------------------------------------------------------------------|
Gb|----------------------------------------------------------------------------|
Db|--6-----6---------6-----2---------2---------2-2-2---------------------------|
Ab|--4-4-4-4-4-4-4-4-4-4-4-0-0-0-0-0-0-0-0-0-0-0-0-0---------------------------|
Eb|----------------------------------------------------------------------------|
       P.M   P.M----|  P.M   P.M----|  P.M-------------------------------------|
  1    girl                            to my fantasy
  2    girl        oh     oh      oh

eb|----------------------------------------------------------------------------|
Bb|----------------------------------------------------------------------------|
Gb|----------------------------------------------------------------------------|
Db|--4-----4---------4-----4---------4---------4-4-4---------------------------|
Ab|--2-2-2-2-2-2-2-2-2-2-2-2-2-2-2-2-2-2-2-2-2-2-2-2---------------------------|
Eb|----------------------------------------------------------------------------|
       P.M   P.M----|  P.M   P.M----|  P.M-------------------------------------|
  1  girl                            you're my fantasy
  2                                      to my fantasy girl

NOTE: The drums finish up the song so if you're playing along,
cut off the final notes and chords of the last riff.



-----------------------------------------------------------------------------
				IV. PARTING GIFT
-----------------------------------------------------------------------------


INTRO (0:00)

   (x1)
eb|----------------------------|
Bb|----------------------------|
Gb|----------------------------|
Db|--x----x----x--x----xxxx----|
Ab|--x----x----x--x----xxxx----|
Eb|--x----x----x--x----xxxx----|

VERSE ONE (0:02)

   (x2)
eb|--------------------------------------------------------------------------|
Bb|--------------------------------------------------------------------------|
Gb|--4-4-4-4-4-4-4-4---------------------------------------------------------|
Db|--4-4-4-4-4-4-4-4---4-4-4-4-4-4-4-4---2-2-2-2-2-2-2-2-2-2-2-2-2-2-2-2-----|
Ab|--2-2-2-2-2-2-2-2---4-4-4-4-4-4-4-4---2-2-2-2-2-2-2-2-2-2-2-2-2-2-2-2-----|
Eb|--------------------2-2-2-2-2-2-2-2---0-0-0-0-0-0-0-0-0-0-0-0-0-0-0-0-----|
  1   Always turning    for the worst     You were always my most
  2   Bringing            everyone        down

eb|--------------------------------------------------------------------------|
Bb|--------------------------------------------------------------------------|
Gb|--4-4-4-4-4-4-4-4---------------------------------------------------------|
Db|--4-4-4-4-4-4-4-4---4-4-4-4-4-4-4-4---6-6-6-6-6-6-6-6---2-2-2-2-x-x-x-x---|
Ab|--2-2-2-2-2-2-2-2---4-4-4-4-4-4-4-4---6-6-6-6-6-6-6-6---2-2-2-2-x-x-x-x---|
Eb|--------------------2-2-2-2-2-2-2-2---4-4-4-4-4-4-4-4---0-0-0-0-x-x-x-x---|
  1   And I hope this   gets you kind     Or stings a       if you even
  2   You left this     empty             Better than      burning to the

CHORUS ONE (0:24):

   (x2)
eb|----------------------------------------------------------------------------|
Bb|----------------------------------------------------------------------------|
Gb|----------------------------------6-6-6-6-6-6-6-6-6-6-6-6-6-6-6-6-----------|
Db|--2--2-2-2-2-2-2-2-2-2-2-2-2-2-2--6-6-6-6-6-6-6-6-6-6-6-6-6-6-6-6-----------|
Ab|--2--2-2-2-2-2-2-2-2-2-2-2-2-2-2--4-4-4-4-4-4-4-4-4-4-4-4-4-4-4-4-----------|
Eb---0--0-0-0-0-0-0-0-0-0-0-0-0-0-0--------------------------------------------|
        P.M--------------------------------------------------------------------|
  1                                           I can't live with you a-
  2  round         anymore                        You're blocking

   (x1)
eb|----------------------------------------------------------------------------|
Bb|----------------------------------------------------------------------------|
Gb|----------------------------------6-6--6--6-6--6-6--6-6--6--6-6--8  QUICK---|
Db|--2--2-2-2-2---2--2--2-2-2-2-2-2--6-6--6--6-6--6-6--6-6--6--6-6--8----------|
Ab|--2--2-2-2-2---2--2--2-2-2-2-2-2--4-4--4--4-4--4-4--4-4--4--4-4--6----------|
Eb---0--0-0-0-0---0--0--0-0-0-0-0-0--------------------------------------------|
        P.M----|        P.M--------| P.M     P.M       P.M---------------------|     P.M
     sound   outside  my    door                                    And

   (x1)
eb|----------------------------------|
Bb|----------------------------------|
Gb|----------------------------------|
Db|---2------------2-2-2-2----2-2----|
Ab|---2------------2-2-2-2----2-2----|
Eb|---0------------0-0-0-0----0-0----|
                   P.M----|
      I found more

VERSE TWO (0:46)

   (x2)
eb|--------------------------------------------------------------------------|
Bb|--------------------------------------------------------------------------|
Gb|--4-4-4-4-4-4-4-4---------------------------------------------------------|
Db|--4-4-4-4-4-4-4-4---4-4-4-4-4-4-4-4---2-2-2-2-2-2-2-2-2-2-2-2-2-2-2-2-----|
Ab|--2-2-2-2-2-2-2-2---4-4-4-4-4-4-4-4---2-2-2-2-2-2-2-2-2-2-2-2-2-2-2-2-----|
Eb|--------------------2-2-2-2-2-2-2-2---0-0-0-0-0-0-0-0-0-0-0-0-0-0-0-0-----|
  1   Can't remember    times that I       almost got bruised
  2   See               you          a - round

eb|--------------------------------------------------------------------------|
Bb|--------------------------------------------------------------------------|
Gb|--4-4-4-4-4-4-4-4---------------------------------------------------------|
Db|--4-4-4-4-4-4-4-4---4-4-4-4-4-4-4-4---6-6-6-6-6-6-6-6---2-2-2-2-x-x-x-x---|
Ab|--2-2-2-2-2-2-2-2---4-4-4-4-4-4-4-4---6-6-6-6-6-6-6-6---2-2-2-2-x-x-x-x---|
Eb|--------------------2-2-2-2-2-2-2-2---4-4-4-4-4-4-4-4---0-0-0-0-x-x-x-x---|
  1   And now I hope   someone gets to    And if I'm       pretend I never
  2   You were alright   were young       Don't compare    anything that


CHORUS TWO (1:07):

   (x2)
eb|--------------------------------------------------------------------------|
Bb|--------------------------------------------------------------------------|
Gb|-----------------------------------6-6-6-6-6-6-6-6-6-6-6-6-6-6-6-6--------|
Db|--2-2-2-2-2-2-2-2-2-2-2-2-2-2-2-2--6-6-6-6-6-6-6-6-6-6-6-6-6-6-6-6--------|
Ab|--2-2-2-2-2-2-2-2-2-2-2-2-2-2-2-2--4-4-4-4-4-4-4-4-4-4-4-4-4-4-4-4--------|
Eb---0-0-0-0-0-0-0-0-0-0-0-0-0-0-0-0-----------------------------------------|
  1                                           I can't live with you a-
  2  round         anymore                        You're blocking

   (x1)
eb|---------------------------------------------------------------------------|
Bb|---------------------------------------------------------------------------|
Gb|----------------------------------6-6--6--6-6--6-6--6-6--6--6-6--8  QUICK--|
Db|--2--2-2-2-2---2--2--2-2-2-2-2-2--6-6--6--6-6--6-6--6-6--6--6-6--8---------|
Ab|--2--2-2-2-2---2--2--2-2-2-2-2-2--4-4--4--4-4--4-4--4-4--4--4-4--6---------|
Eb---0--0-0-0-0---0--0--0-0-0-0-0-0-------------------------------------------|
        P.M----|        P.M--------| P.M     P.M       P.M--------------------|     P.M  And
     sound   outside  my    door

   (x1)
eb|----------------------------------|
Bb|----------------------------------|
Gb|----------------------------------|
Db|---2------------2-2-2-2----2-2----|
Ab|---2------------2-2-2-2----2-2----|
Eb|---0------------0-0-0-0----0-0----|
                   P.M----|
      I found more

BRIDGE (1:29):

   (x4 - x2 without vocals + x2 with vocals) On #4, end with a pick scrape.
eb|----------------------------------------------------------------------------|
Bb|----------------------------------------------------------------------------|
Gb|----------------------------------------------------------------------------|
Db|----------------------4-4--------------------------4-4----------------------|
Ab|--6-------4-----2-----2-2------6-------4-----2-----2-2----------------------|
Eb|--4-4-4-4-2-2-2-0-0-0----------4-4-4-4-2-2-2-0-0-0--------------------------|
    P.M-----------------|         P.M------------------------------------------|
  3  I wrote you down a           It had all the      keep
  4  I held them in for  break    Maybe now I can

   (x3)
eb|--------------------------------------------------------------------------|
Bb|--------------------------------------------------------------------------|
Gb|-----------------------------4---4-----------------------------4---4------|
Db|--6-6-6-6--4-4-4-4--2-2-2-2--4---4--6-6-6-6--4-4-4-4--2-2-2-2--4---4------|
Ab|--6-6-6-6--4-4-4-4--2-2-2-2--2---2--6-6-6-6--4-4-4-4--2-2-2-2--2---2------|
Eb---4-4-4-4--2-2-2-2--0-0-0-0---------4-4-4-4--2-2-2-2--0-0-0-0-------------|
  1  I wrote you down a         sleep   It had all the secrets     keep
  2  I held it in for so long   break   Now I can rest and         awake
  3  I wrote you down a         sleep   It had all the secrets     keep

   (x1)
eb|--------------------------------------------------------------------------|
Bb|--------------------------------------------------------------------------|
Gb|----------------------------4---------------------------------------------|
Db|--6-6-6-6--4-4-4-4--2-2-2---4-------6-6-6-6--4-4-4-4--2-2-2-2---  PICK ---|
Ab|--6-6-6-6--4-4-4-4--2-2-2---2-------6-6-6-6--4-4-4-4--2-2-2-2--- SCRAPE---|
Eb---4-4-4-4--2-2-2-2--0-0-0-----------4-4-4-4--2-2-2-2--0-0-0-0-------------|
                       P.M--|
     I held it in for so long   break   Now I can rest and         awake

   (x1)
eb|--------------------------------------------------------------------------|
Bb|--------------------------------------------------------------------------|
Gb|-----------------------------4---4-----------------------------4---4------|
Db|--6-6-6-6--4-4-4-4--2-2-2-2--4---4--6-6-6-6--4-4-4-4--2-2-2-2--4---4------|
Ab|--6-6-6-6--4-4-4-4--2-2-2-2--2---2--6-6-6-6--4-4-4-4--2-2-2-2--2---2------|
Eb---4-4-4-4--2-2-2-2--0-0-0-0---------4-4-4-4--2-2-2-2--0-0-0-0-------------|
     I wrote you down a         sleep   It had all the secrets     keep

AND A LITTLE ALTERATION FOR THE OUTRO (2:18)

   (x1)
eb|--------------------------------------------------------------------------|
Bb|--------------------------------------------------------------------------|
Gb|----------------------------4----------------------------------4----------|
Db|--6-6-6-6--4-4-4-4--2-2-2---4-------6-6-6-6--4-4-4-4--2-2-2-2--4-- RING --|
Ab|--6-6-6-6--4-4-4-4--2-2-2---2-------6-6-6-6--4-4-4-4--2-2-2-2--2----------|
Eb---4-4-4-4--2-2-2-2--0-0-0-----------4-4-4-4--2-2-2-2--0-0-0-0-------------|
                       P.M--|
     I held it in for so long   break   Now I can rest and         awake



-----------------------------------------------------------------------------
			V. DARKNESS EVERYBODY
-----------------------------------------------------------------------------


VERSE ONE, PART ONE (0:00)

   (x2)
eb|--------------------------------------------------------------------------|
Bb|--------------------------------------------------------------------------|
Gb|-------------------7-7-7-7---------------------------7-7-7-7--------------|
Db|--7-7-7-7----------7-7-7-7----------7-7-7-7----------7-7-7-7--------------|
Ab|--7-7-7-7----------5-5-5-5----------7-7-7-7----------5-5-5-5--------------|
Eb|--5-5-5-5---------------------------5-5-5-5-------------------------------|
  1  trying to         keeps         I can't shake     -ness has
  2  fast enough      what has       -ning strikes     that I touch (2, 3, 4!)

VERSE ONE, PART TWO (0:15)

   (x1)
eb|--------------------------------------------------------------------------|
Bb|--------------------------------------------------------------------------|
Gb|-------------------7-7-7-7-7-7-7-7-------------------7-7-7-7-7-7-7-7------|
Db|--7-7-7-7-7-7-7-7--7-7-7-7-7-7-7-7--7-7-7-7-7-7-7-7--7-7-7-7-7-7-7-7------|
Ab|--7-7-7-7-7-7-7-7--5-5-5-5-5-5-5-5--7-7-7-7-7-7-7-7--5-5-5-5-5-5-5-5------|
Eb|--5-5-5-5-5-5-5-5-------------------5-5-5-5-5-5-5-5-----------------------|
      This is how     to be on my own    Sadness has cut me down to the bone

   (x1)
eb|--------------------------------------------------------------------------|
Bb|--------------------------------------------------------------------------|
Gb|-------------------7-7-7-7-7-7-7-7--4-4-----4-4------4-4-4-4-7------------|
Db|--7-7-7-7-7-7-7-7--7-7-7-7-7-7-7-7--4-4-----4-4------4-4-4-4-7------------|
Ab|--7-7-7-7-7-7-7-7--5-5-5-5-5-5-5-5--2-2-----2-2------2-2-2-2-5------------|
Eb|--5-5-5-5-5-5-5-5---------------------------------------------------------|
      And it's so      don't think    home tonight

CHORUS ONE (0:30):

   (x2)
eb|--------------------------------------------------------------------------|
Bb|--------------------------------------------------------------------------|
Gb|--------------------7-7-7-7-7-7-7-7---4-4-4-4-4-4-4-4---7-7-7-7-7-7-7-7---|
Db|--7-7-7-7-7-7-7-7---7-7-7-7-7-7-7-7---4-4-4-4-4-4-4-4---7-7-7-7-7-7-7-7---|
Ab|--7-7-7-7-7-7-7-7---5-5-5-5-5-5-5-5---2-2-2-2-2-2-2-2---5-5-5-5-5-5-5-5---|
Eb|--5-5-5-5-5-5-5-5---------------------------------------------------------|
  1  lights in your    could leave on      me tonight             There's not
  2  fights I could    justify how I       feel tonight

VERSE TWO, PART ONE (0:45)

   (x1)
eb|--------------------------------------------------------------------------|
Bb|--------------------------------------------------------------------------|
Gb|-------------------7-7-7-7---------------------------7-7-7-7--------------|
Db|--7-7-7-7----------7-7-7-7----------7-7-7-7----------7-7-7-7--------------|
Ab|--7-7-7-7----------5-5-5-5----------7-7-7-7----------5-5-5-5--------------|
Eb|--5-5-5-5---------------------------5-5-5-5-------------------------------|
     calling          what they       the gossip        every word

   (x1)
eb|--------------------------------------------------------------------------|
Bb|--------------------------------------------------------------------------|
Gb|-------------------7-7-7-7---------------------------------7--------------|
Db|--7-7-7-7----------7-7-7-7----------7-7-7-7----------------7--------------|
Ab|--7-7-7-7----------5-5-5-5----------7-7-7-7----------5-5-5-5--------------|
Eb|--5-5-5-5---------------------------5-5-5-5-------------------------------|
                                                        P.M--|
     I'm not mad      actually         believe        loves me so

VERSE TWO, PART TWO (0:59)

   (x1)
eb|--------------------------------------------------------------------------|
Bb|--------------------------------------------------------------------------|
Gb|-------------------7-7-7-7-7-7-7-7-------------------7-7-7-7-7-7-7-7------|
Db|--7-7-7-7-7-7-7-7--7-7-7-7-7-7-7-7--7-7-7-7-7-7-7-7--7-7-7-7-7-7-7-7------|
Ab|--7-7-7-7-7-7-7-7--5-5-5-5-5-5-5-5--7-7-7-7-7-7-7-7--5-5-5-5-5-5-5-5------|
Eb|--5-5-5-5-5-5-5-5-------------------5-5-5-5-5-5-5-5-----------------------|
      Failing every    late for the     Alone to         do your makeup

   (x1)
eb|--------------------------------------------------------------------------|
Bb|--------------------------------------------------------------------------|
Gb|-------------------7-7-7-7-7-7-7-7--4-4--x-x-4-4--x-x-4-4-------7---------|
Db|--7-7-7-7-7-7-7-7--7-7-7-7-7-7-7-7--4-4--x-x-4-4--x-x-4-4-------7---------|
Ab|--7-7-7-7-7-7-7-7--5-5-5-5-5-5-5-5--2-2--x-x-2-2--x-x-2-2-------5---------|
Eb|--5-5-5-5-5-5-5-5---------------------------------------------------------|
      know that I      alright before  over    now     tonight

CHORUS TWO (1:14):

   (x4)
eb|--------------------------------------------------------------------------|
Bb|--------------------------------------------------------------------------|
Gb|--------------------7-7-7-7-7-7-7-7---4-4-4-4-4-4-4-4---7-7-7-7-7-7-7-7---|
Db|--7-7-7-7-7-7-7-7---7-7-7-7-7-7-7-7---4-4-4-4-4-4-4-4---7-7-7-7-7-7-7-7---|
Ab|--7-7-7-7-7-7-7-7---5-5-5-5-5-5-5-5---2-2-2-2-2-2-2-2---5-5-5-5-5-5-5-5---|
Eb|--5-5-5-5-5-5-5-5---------------------------------------------------------|
  1  lights in your    could leave on      me tonight             There's not
  2  fights I could    justify how I       feel tonight
  3  this would         I wonder           real tonight                And if
  4  makes any          then push my       back up against

POST-CHORUS (1:44)

   (x1)
eb|----------------------------------------------------------------------------|
Bb| QUICK ---------------------------------------------------------------------|
Gb|----------------------------------------------------------------------------|
Db|--7---------------7-----------7-6-------------------------------------------|
Ab|--7---------------7-- PAUSE --7-6-------------------------------------------|
Eb|--5-5-5-5-5-5-5-5-5-----------5-4-------------------------------------------|
       P.M---------------------------------------------------------------------|
  -night

BRIDGE (1:48):

   (x3)
eb|--------------------------------------------------------------------------|
Bb|--------------------------------------------------------------------------|
Gb|-------------------7-7-7-7-7-7-7-7-------------------9-9-9-9-9-9-9-9------|
Db|--4-4-4-4-4-4-4-4--7-7-7-7-7-7-7-7--7-7-7-7-7-7-7-7--9-9-9-9-9-9-9-9------|
Ab|--4-4-4-4-4-4-4-4--5-5-5-5-5-5-5-5--7-7-7-7-7-7-7-7--7-7-7-7-7-7-7-7------|
Eb|--2-2-2-2-2-2-2-2-------------------5-5-5-5-5-5-5-5-----------------------|
  1     And I know     be the last      walk these       hang my head
  2     And I know     be the last      walk these      wish I was dead
  3     And I know     be the last      walk these        hang my head

   (x1)
eb|--------------------------------------------------------------------------|
Bb|--------------------------------------------------------------------------|
Gb|-------------------7-7-7-7-7-7-7-7-------------------9-9-x-x-9-9-x-x------|
Db|--4-4-4-4-4-4-4-4--7-7-7-7-7-7-7-7--7-7-7-7-7-7-7-7--9-9-x-x-9-9-x-x------|
Ab|--4-4-4-4-4-4-4-4--5-5-5-5-5-5-5-5--7-7-7-7-7-7-7-7--7-7-x-x-7-7-x-x------|
Eb|--2-2-2-2-2-2-2-2-------------------5-5-5-5-5-5-5-5-----------------------|
        And I know     be the last       be the last     be the last

FINAL CHORUS, PART ONE (2:18)

   (x2)
eb|----------------------------------------------------------------------------|
Bb|----------------------------------------------------------------------------|
Gb|----------------------------------------------------------------------------|
Db|--7-------------------------------------------------------------------------|
Ab|--7----------------5-5-5-5-5-5-5-5--2-2-2-2-2-2-2-2--5-5-5-5-5-5-5-5--------|
Eb|--5-5-5-5-5-5-5-5-----------------------------------------------------------|
       P.M---------------------------------------------------------------------|
  1  lights in your    could leave on      me tonight             There's not
  2  fights I could    justify how I     feel tonight

FINAL CHORUS, PART TWO (2:33)

  (x3)
eb|--------------------------------------------------------------------------|
Bb|--------------------------------------------------------------------------|
Gb|--------------------7-7-7-7-7-7-7-7---4-4-4-4-4-4-4-4---7-7-7-7-7-7-7-7---|
Db|--7-7-7-7-7-7-7-7---7-7-7-7-7-7-7-7---4-4-4-4-4-4-4-4---7-7-7-7-7-7-7-7---|
Ab|--7-7-7-7-7-7-7-7---5-5-5-5-5-5-5-5---2-2-2-2-2-2-2-2---5-5-5-5-5-5-5-5---|
Eb|--5-5-5-5-5-5-5-5---------------------------------------------------------|
  1  this would         wonder what's     real tonight          And if this
  2  makes any sense    then push my      back up against  wall,   if this
  3  makes any sense    then push my      back up against   the wall

END ON (2:55)

   (x1)
eb|-----|
Bb|-----|
Gb|-----|
Db|--7--|
Ab|--7--|
Eb|--5--|



-----------------------------------------------------------------------------
			VI. SHE'S GOT HER OWN MAN NOW
-----------------------------------------------------------------------------


VERSE ONE (0:01):
[ NOTE: Bass joins in on on 3rd ]

   (x4)
eb|-----------------------------------------------------------------------------|
Bb|-----------------------------------------------------------------------------|
Gb|-----------------------------------------------------------------------------|
Db|--3-3-3-3-3-3-3-3--7-7-7-7-7-7-7-7--5-5-5-5-5-5-5-5-5-5-5-5-5-5-5-5----------|
Ab|--3-3-3-3-3-3-3-3--7-7-7-7-7-7-7-7--5-5-5-5-5-5-5-5-5-5-5-5-5-5-5-5----------|
Eb|--1-1-1-1-1-1-1-1--5-5-5-5-5-5-5-5--3-3-3-3-3-3-3-3-3-3-3-3-3-3-3-3----------|
    P.M-------------------------------------------------------------------------|
  1     At my best    I've been weird   It's no more autumn stuff
  2     Look at         free from       Shoot bullets through
  3     Call me out    She's calling    And I guess she didn't
  4     Call me out    She's calling    And I guess she didn't

CHORUS ONE (0:31):

   (x1)
eb|-----------------------------------------------------------------------------|
Bb|-----------------------------------------------------------------------------|
Gb|-------------------5-5-5-5-5-5-5-5-------------------------------------------|
Db|--3-3-3-3-3-3-3-3--5-5-5-5-5-5-5-5--5-5-5-5-5-5-5-5-5-5-5-5-5-5-5-5----------|
Ab|--3-3-3-3-3-3-3-3--3-3-3-3-3-3-3-3--5-5-5-5-5-5-5-5-5-5-5-5-5-5-5-5----------|
Eb|--1-1-1-1-1-1-1-1-------------------3-3-3-3-3-3-3-3-3-3-3-3-3-3-3-3----------|
     P.M------------------------------------------------------------------------|
         She's got her  own man now            She's doing fine

   (x1)
eb|-----------------------------------------------------------------------------|
Bb|-----------------------------------------------------------------------------|
Gb|-----------------------------------------------------------------------------|
Db|--3-3-3-3-3-3-3-3--7-7-7-7-7-7-7-7--5-5-5-5-5-5-5-5-5-5-5-5-5-5-5-5----------|
Ab|--3-3-3-3-3-3-3-3--7-7-7-7-7-7-7-7--5-5-5-5-5-5-5-5-5-5-5-5-5-5-5-5----------|
Eb|--1-1-1-1-1-1-1-1--5-5-5-5-5-5-5-5--3-3-3-3-3-3-3-3-3-3-3-3-3-3-3-3----------|
     P.M -----------------------------------------------------------------------|
         She's got her own man now           I guess that's why she

   (x1)
eb|-----------------------------------------------------------------------------|
Bb|-----------------------------------------------------------------------------|
Gb|-----------------------------------------------------------------------------|
Db|--3-3-3-3-3-3-3-3--7-7-7-7-7-7-7-7--5-5-5-5-5-5-5-5-5-5-5-5-5-5-5-5----------|
Ab|--3-3-3-3-3-3-3-3--7-7-7-7-7-7-7-7--5-5-5-5-5-5-5-5-5-5-5-5-5-5-5-5----------|
Eb|--1-1-1-1-1-1-1-1--5-5-5-5-5-5-5-5--3-3-3-3-3-3-3-3-3-3-3-3-3-3-3-3----------|
     P.M -----------------------------------------------------------------------|
         Call me out    What she's       And I guess she didn't know

   (x1)
eb|-----------------------------------------------------------------------------|
Bb|-----------------------------------------------------------------------------|
Gb|-------------------5-5-5-5-5-5-5-5-------------------------------------------|
Db|--3-3-3-3-3-3-3-3--5-5-5-5-5-5-5-5--5-5-5-5-5-5-5-5-5-5-5-5-5-5-5-5----------|
Ab|--3-3-3-3-3-3-3-3--3-3-3-3-3-3-3-3--5-5-5-5-5-5-5-5-5-5-5-5-5-5-5-5----------|
Eb|--1-1-1-1-1-1-1-1-------------------3-3-3-3-3-3-3-3-3-3-3-3-3-3-3-3----------|
     P.M -----------------------------------------------------------------------|
         She's got      own man now

VERSE TWO (1:01):

   (x3)
eb|-----------------------------------------------------------------------------|
Bb|-----------------------------------------------------------------------------|
Gb|-----------------------------------------------------------------------------|
Db|--3-3-3-3-3-3-3-3--7-7-7-7-7-7-7-7--5-5-5-5-5-5-5-5-5-5-5-5-5-5-5-5----------|
Ab|--3-3-3-3-3-3-3-3--7-7-7-7-7-7-7-7--5-5-5-5-5-5-5-5-5-5-5-5-5-5-5-5----------|
Eb|--1-1-1-1-1-1-1-1--5-5-5-5-5-5-5-5--3-3-3-3-3-3-3-3-3-3-3-3-3-3-3-3----------|
    P.M ------------------------------------------------------------------------|
  1     At my best    average or less   I can't apply myself
  2   She wins the    before long       I guess she dug to deep
  3     Call me out   She's calling    And I guess she didn't

   (x1)
eb|-----------------------------------------------------------------------------|
Bb|-----------------------------------------------------------------------------|
Gb|-----------------------------------------------------------------------------|
Db|--3-3-3-3-3-3-3-3--7-7-7-7-7-7-7-7---5---------------------------------------|
Ab|--3-3-3-3-3-3-3-3--7-7-7-7-7-7-7-7---5-- LET RING ---------------------------|
Eb|--1-1-1-1-1-1-1-1--5-5-5-5-5-5-5-5---3---------------------------------------|
     P.M -----------------------------------------------------------------------|
         Call me out    She's calling       I guess that's why she

CHORUS TWO (1:30):

   (x1)
eb|---------------------------------------------------------------------------|
Bb|---------------------------------------------------------------------------|
Gb|-------------------5-5-5-5-5-5-5-5-----------------------------------------|
Db|--3-3-3-3-3-3-3-3--5-5-5-5-5-5-5-5--5-5-5-5-5-5-5-5-5-5-5-5-5-5-5-5--------|
Ab|--3-3-3-3-3-3-3-3--3-3-3-3-3-3-3-3--5-5-5-5-5-5-5-5-5-5-5-5-5-5-5-5--------|
Eb|--1-1-1-1-1-1-1-1-------------------3-3-3-3-3-3-3-3-3-3-3-3-3-3-3-3--------|
          She's got her  own man now              She's doing fine

   (x1)
eb|---------------------------------------------------------------------------|
Bb|---------------------------------------------------------------------------|
Gb|---------------------------------------------------------------------------|
Db|--3-3-3-3-3-3-3-3--7-7-7-7-7-7-7-7--5-5-5-5-5-5-5-5-5-5-5-5-5-5-5-5--------|
Ab|--3-3-3-3-3-3-3-3--7-7-7-7-7-7-7-7--5-5-5-5-5-5-5-5-5-5-5-5-5-5-5-5--------|
Eb|--1-1-1-1-1-1-1-1--5-5-5-5-5-5-5-5--3-3-3-3-3-3-3-3-3-3-3-3-3-3-3-3--------|
          She's got her  own man now      I guess that's why she

   (x1)
eb|---------------------------------------------------------------------------|
Bb|---------------------------------------------------------------------------|
Gb|---------------------------------------------------------------------------|
Db|--3-3-3-3-3-3-3-3--7-7-7-7-7-7-7-7--5-5-5-5-5-5-5-5-5-5-5-5-5-5-5-5--------|
Ab|--3-3-3-3-3-3-3-3--7-7-7-7-7-7-7-7--5-5-5-5-5-5-5-5-5-5-5-5-5-5-5-5--------|
Eb|--1-1-1-1-1-1-1-1--5-5-5-5-5-5-5-5--3-3-3-3-3-3-3-3-3-3-3-3-3-3-3-3--------|
         Call me out    What she's       And I guess she didn't

   (x1)
eb|---------------------------------------------------------------------------|
Bb|---------------------------------------------------------------------------|
Gb|-------------------5-5-5-5-5-5-5-5-----------------------------------------|
Db|--3-3-3-3-3-3-3-3--3-3-3-3-3-3-3-3--5-5-5-5-5-5-5-5-5-5-5-5-5-5-5-5--------|
Ab|--3-3-3-3-3-3-3-3--3-3-3-3-3-3-3-3--5-5-5-5-5-5-5-5-5-5-5-5-5-5-5-5--------|
Eb|--1-1-1-1-1-1-1-1-------------------3-3-3-3-3-3-3-3-3-3-3-3-3-3-3-3--------|
         She's got      own man now

   (x1)
eb|----------------|
Bb|----------------|
Gb|----------------|
Db|--7-------------|
Ab|--7-  LET RING  |
Eb|--5-------------|

BRIDGE (2:04)

   (x3)
eb|---------------------------------------------------------------------------|
Bb|---------------------------------------------------------------------------|
Gb|-------------------7-7-7-7-7-7-7-7----------------------------5------------|
Db|--3-3-3-3-3-3-3-3--7-7-7-7-7-7-7-7--7-7-7-7-7-7-7-7-7-7-7-7---5---- QUICK -|
Ab|--3-3-3-3-3-3-3-3--5-5-5-5-5-5-5-5--7-7-7-7-7-7-7-7-7-7-7-7-3-3-3-x--------|
Eb|--1-1-1-1-1-1-1-1-------------------5-5-5-5-5-5-5-5-5-5-5-5----------------|
  1     You made        The guest of    Party got stopped      just went
  2     You made        The guest of    Party got stopped      just went
  3     You made        The guest of    Party got stopped      stopped

   (x1)
eb|---------------------------------------------------------------------------|
Bb|---------------------------------------------------------------------------|
Gb|-------------------7-7-7-7-7-7-7-7-----------------------------------------|
Db|--3-3-3-3-3-3-3-3--7-7-7-7-7-7-7-7--3-------------5------------------------|
Ab|--3-3-3-3-3-3-3-3--5-5-5-5-5-5-5-5--3   LET RING  5  LET RING  ------------|
Eb|--1-1-1-1-1-1-1-1-------------------1-------------3------------------------|
        You made        The guest of     Party got      Everybody

FINAL CHORUS (2:35)

   (x1)
eb|---------------------------------------------------------------------------|
Bb|---------------------------------------------------------------------------|
Gb|-------------------5-5-5-5-5-5-5-5-----------------------------------------|
Db|--3-3-3-3-3-3-3-3--5-5-5-5-5-5-5-5--5-5-5-5-5-5-5-5-5-5-5-5-5-5-5-5--------|
Ab|--3-3-3-3-3-3-3-3--3-3-3-3-3-3-3-3--5-5-5-5-5-5-5-5-5-5-5-5-5-5-5-5--------|
Eb|--1-1-1-1-1-1-1-1-------------------3-3-3-3-3-3-3-3-3-3-3-3-3-3-3-3--------|
            She's got      own man now            She's doing fine

   (x1)
eb|---------------------------------------------------------------------------|
Bb|---------------------------------------------------------------------------|
Gb|---------------------------------------------------------------------------|
Db|--3-3-3-3-3-3-3-3--7-7-7-7-7-7-7-7--5-5-5-5-5-5-5-5-5-5-5-5-5-5-5-5--------|
Ab|--3-3-3-3-3-3-3-3--7-7-7-7-7-7-7-7--5-5-5-5-5-5-5-5-5-5-5-5-5-5-5-5--------|
Eb|--1-1-1-1-1-1-1-1--5-5-5-5-5-5-5-5--3-3-3-3-3-3-3-3-3-3-3-3-3-3-3-3--------|
         She's got      own man now         I guess it's cause she

   (x1)
eb|---------------------------------------------------------------------------|
Bb|---------------------------------------------------------------------------|
Gb|---------------------------------------------------------------------------|
Db|--3-3-3-3-3-3-3-3--7-7-7-7-7-7-7-7--5-5-5-5-5-5-5-5-5-5-5-5-5-5-5-5--------|
Ab|--3-3-3-3-3-3-3-3--7-7-7-7-7-7-7-7--5-5-5-5-5-5-5-5-5-5-5-5-5-5-5-5--------|
Eb|--1-1-1-1-1-1-1-1--5-5-5-5-5-5-5-5--3-3-3-3-3-3-3-3-3-3-3-3-3-3-3-3--------|
         Call me out    What she's       And I guess she didn't

   (x1)
eb|---------------------------------------------------------------------------|
Bb|---------------------------------------------------------------------------|
Gb|-------------------5-5-5-5-5-5-5-5-----------------------------------------|
Db|--3-3-3-3-3-3-3-3--5-5-5-5-5-5-5-5--5-5-5-5-5-5-5-5-5-5-5-5-5-5-5-5--------|
Ab|--3-3-3-3-3-3-3-3--3-3-3-3-3-3-3-3--5-5-5-5-5-5-5-5-5-5-5-5-5-5-5-5--------|
Eb|--1-1-1-1-1-1-1-1-------------------3-3-3-3-3-3-3-3-3-3-3-3-3-3-3-3--------|
         She's got her  own man now

OUTRO (3:05):

   (x2)
eb|-----------------------------------------------------------------------------|
Bb|-----------------------------------------------------------------------------|
Gb|-----------------------------------------------------------------------------|
Db|--3-3-3-3-3-3-3-3--7-7-7-7-7-7-7-7--5-5-5-5-5-5-5-5-5-5-5-5-5-5-5-5----------|
Ab|--3-3-3-3-3-3-3-3--7-7-7-7-7-7-7-7--5-5-5-5-5-5-5-5-5-5-5-5-5-5-5-5----------|
Eb|--1-1-1-1-1-1-1-1--5-5-5-5-5-5-5-5--3-3-3-3-3-3-3-3-3-3-3-3-3-3-3-3----------|
     P.M------------------------------------------------------------------------|
  1    Call me out                        And I guess she didn't know
  2    Call me out                        And I guess she didn't know better



------------------------------------------------------------------------------
				VII. AL SHARPTON
------------------------------------------------------------------------------


INTRO, PART ONE (RHYTHM) (0:02)

   (x1)
eb|----------------------------------------------------------------------------|
Bb|----------------------------------------------------------------------------|
Gb|----------------------------------------------------------------------------|
Db|--7-7---7-7-7---9--9-9--9-9-9-9---5-5---5-5-5---7---7-7---7-7-7-7-----------|
Ab|--7-7---7-7-7---9--9-9--9-9-9-9---5-5---5-5-5---7---7-7---7-7-7-7- S T O P -|
Eb|--5-5---5-5-5---7--7-7--7-7-7-7---3-3---3-3-3---5---5-5---5-5-5-5-----------|

eb|------------------------------------------------------------------------------|
Bb|------------------------------------------------------------------------------|
Gb|------------------------------------------------------------------------------|
Db|----7---7-7-7---9--9-9--9-9-9-9---5-5-5-5-5-5-5-5---7-7-7-7-7-7-7-7-----------|
Ab|----7---7-7-7---9--9-9--9-9-9-9---5-5-5-5-5-5-5-5---7-7-7-7-7-7-7-7-----------|
Eb|----5---5-5-5---7--7-7--7-7-7-7---3-3-3-3-3-3-3-3---5-5-5-5-5-5-5-5-----------|
                                     P.M-----------------------------------------|

INTRO, PART TWO (RHYTHM AND LEAD) (0:11)

   (x1)
eb|----------------------------------------------------------------------------|
Bb|----------------------------------------------------------------------------|   R
Gb|----------------------------------------------------------------------------|
Db|--7-7---7-7-7---9--9-9--9-9-9-9---5-5---5-5-5---7---7-7---7-7-7-7-----------|   H
Ab|--7-7---7-7-7---9--9-9--9-9-9-9---5-5---5-5-5---7---7-7---7-7-7-7- S T O P -|
Eb|--5-5---5-5-5---7--7-7--7-7-7-7---3-3---3-3-3---5---5-5---5-5-5-5-----------|   Y

eb|-----------------------------------------------------------------------------|   T
Bb|-----------------------------------------------------------------------------|
Gb|--------------------------------------------------------------------7--------|   H
Db|----7---7-7-7---9--9-9--9-9-9-9---5-5-5-5-5-5-5-5---7-7-7-7-7-7-7---7- RING--|
Ab|----7---7-7-7---9--9-9--9-9-9-9---5-5-5-5-5-5-5-5---7-7-7-7-7-7-7---5--------|   M
Eb|----5---5-5-5---7--7-7--7-7-7-7---3-3-3-3-3-3-3-3---5-5-5-5-5-5-5------------|
                                    P.M-----------------------------------------|    I know...

   (x1)
eb|----------------------------------------------------------------------------|
Bb|------10--7----------10--7----------------10--8--7--------------------------|
Gb|--7---------------7---------9----------7-----------9--9--7--9---- S T O P --|   L
Db|----------------------------------------------------------------------------|
Ab|----------------------------------------------------------------------------|
Eb|----------------------------------------------------------------------------|   E

eb|----------------------------------------------------------------------------|
Bb|------10--7----------10--7---------8-8-7-7---------------------7-7----------|   A
Gb|------------------7---------9--------------9-9-7-7-6-6-7-7-9-9------7- RING |
Db|----------------------------------------------------------------------------|
Ab|----------------------------------------------------------------------------|   D
Eb|----------------------------------------------------------------------------|

VERSE ONE (0:21):

   (x1)
eb|----------------------------------------------------------------------------|
Bb|----------------------------------------------------------------------------|
Gb|--------------------------------2----------------------------2--------------|
Db|--------------------------------2----------------------------2-(QUICK)------|
Ab|--------------------------------0----------------------------0--------------|
Eb|----------------------------------------------------------------------------|
     you're sound asleep right now   And you can hear but I'm gonna

   (x1)
eb|----------------------------------------------------------------------------|
Bb|----------------------------------------------------------------------------|
Gb|--4--4-4--4--4-4--4--4--4--4-4-4--------------------------------------------|
Db|--4--4-4--4--4-4--4--4--4--4-4-4-----5--5-5--5--5-5--5--5--5--5-5-5---------|
Ab|--2--2-2--2--2-2--2--2--2--2-2-2-----5--5-5--5--5-5--5--5--5--5-5-5---------|
Eb|-------------------------------------3--3-3--3--3-3--3--3--3--3-3-3---------|
        P.M     P.M                        P.M     P.M
     explain everything...        darkness into

   (x1)
eb|----------------------------------------------------------------------------|
Bb|----------------------------------------------------------------------------|
Gb|---7------------------------------2-----------------2-----------------------|
Db|---7------------------------------2-----------------2-(QUICK)---------------|
Ab|---5------------------------------0-----------------0-----------------------|
Eb|----------------------------------------------------------------------------|
     dream  You pretty little head could ever come up with

   (x1)
eb|----------------------------------------------------------------------------|
Bb|----------------------------------------------------------------------------|
Gb|--4--4-4--4--4-4--4--4--4--4-4-4--------------------------------------------|
Db|--4--4-4--4--4-4--4--4--4--4-4-4-----5--5-5--5--5--5-5----4-4-4-------------|
Ab|--2--2-2--2--2-2--2--2--2--2-2-2-----5--5-5--5--5--5-5----4-4-4-------------|
Eb|-------------------------------------3--3-3--3--3--3-3----2-2-2-------------|
        P.M     P.M
     Drunk with the thought             right now

PRECHORUS ONE (0:39):

   (x1)
eb|--------------------------------------------------------------------------------|
Bb|--------------------------------------------------------------------------------|
Gb|--------------------------------------------------------------------------------|
Db|--2-----2---2--2--2--5-----5---5--5--5--9-----9---9--9--9--7-----7---7--7--7----|
Ab|--2-----2---2--2--2--5-----5---5--5--5--9-----9---9--9--9--7-----7---7--7--7----|
Eb|--0-0-0-0---0--0--0--3-3-3-3---3--3--3--7-7-7-7---7--7--7--5-5-5-5---5--5--5----|
       P.M.               P.M.               P.M.               P.M.
           I think      I think                  I think      we would know better

   (x1)
eb|----------------------------------------------------------------------------|
Bb|----------------------------------------------------------------------------|
Gb|----------------------------------------------------------------------------|
Db|---2-2-2-2-2-2-2-2-2-2-2-2-2-2-2-2--5-5-5-5-5-5-5-5-5-5-5-5-5-5-5-5---------|
Ab|---2-2-2-2-2-2-2-2-2-2-2-2-2-2-2-2--5-5-5-5-5-5-5-5-5-5-5-5-5-5-5-5---------|
Eb|---0-0-0-0-0-0-0-0-0-0-0-0-0-0-0-0--3-3-3-3-3-3-3-3-3-3-3-3-3-3-3-3---------|
          I think we're old enough        I think we're old enough

   (x1)                                (Cut this off a little earlier)
eb|----------------------------------------------------------------------------|
Bb|----------------------------------------------------------------------------|
Gb|----------------------------------------------------------------------------|
Db|---9-9-9-9-9-9-9-9-9-9-9-9-9-9-9-9--7-7-7-7-7-7-7-7-7-7-7-7-7-7-7-7---------|
Ab|---9-9-9-9-9-9-9-9-9-9-9-9-9-9-9-9--7-7-7-7-7-7-7-7-7-7-7-7-7-7-7-7---------|
Eb|---7-7-7-7-7-7-7-7-7-7-7-7-7-7-7-7--5-5-5-5-5-5-5-5-5-5-5-5-5-5-5-5---------|
          I think we're old enough         we would know better

CHORUS ONE (0:58):

   (x2)
eb|----------------------------------------------------------------------------|
Bb|----------------------------------------------------------------------------|
Gb|----------------------------------------------------------------------------|
Db|--7-7---7-7-7---9--9-9--9-9-9-9---5-5---5-5-5---7---7-7---7-7-7-7-----------|
Ab|--7-7---7-7-7---9--9-9--9-9-9-9---5-5---5-5-5---7---7-7---7-7-7-7- S T O P -|
Eb|--5-5---5-5-5---7--7-7--7-7-7-7---3-3---3-3-3---5---5-5---5-5-5-5-----------|
  1    I pretend that I'm already someone                faded away
  2    I pretend that I'm already someone                faded away

eb|------------------------------------------------------------------------------|
Bb|------------------------------------------------------------------------------|
Gb|------------------------------------------------------------------------------|
Db|----7---7-7-7---9--9-9--9-9-9-9---5-5-5-5-5-5-5-5---7-7-7-7-7-7-7-7-----------|
Ab|----7---7-7-7---9--9-9--9-9-9-9---5-5-5-5-5-5-5-5---7-7-7-7-7-7-7-7-----------|
Eb|----5---5-5-5---7--7-7--7-7-7-7---3-3-3-3-3-3-3-3---5-5-5-5-5-5-5-5-----------|
                                    P.M------------------------------------------|
  1    Woah oh oh oh
  2   I pretend that I'm already someone              already someone

VERSE TWO (1:17):

   (x1)
eb|--------------------------------------------------------- ------------------|
Bb|----------------------------------------------------------------------------|
Gb|--7-----------------------------2----------------------------2--------------|
Db|--7-----------------------------2----------------------------2-(QUICK)------|
Ab|--5-----------------------------0----------------------------0--------------|
Eb|----------------------------------------------------------------------------|
        I should be sound asleep   now but I'm not I'm          gonna

   (x1)
eb|----------------------------------------------------------------------------|
Bb|----------------------------------------------------------------------------|
Gb|--4--4-4--4--4-4--4--4--4--4-4-4--------------------------------------------|
Db|--4--4-4--4--4-4--4--4--4--4-4-4-----5--5-5--5--5-5--5--5--5--5-5-5---------|
Ab|--2--2-2--2--2-2--2--2--2--2-2-2-----5--5-5--5--5-5--5--5--5--5-5-5---------|
Eb|-------------------------------------3--3-3--3--3-3--3--3--3--3-3-3---------|
        P.M     P.M                        P.M     P.M
     explain everything...              hope that you can hear me

   (x1)
eb|----------------------------------------------------------------------------|
Bb|----------------------------------------------------------------------------|
Gb|---7------------------------------2-----------------2-----------------------|
Db|---7------------------------------2-----------------2-(QUICK)---------------|
Ab|---5------------------------------0-------------0-0-0-----------------------|
Eb|----------------------------------------------------------------------------|
                                                   P.M
      so   You pretty little head goes         undisrupted

   (x1)
eb|----------------------------------------------------------------------------|
Bb|----------------------------------------------------------------------------|
Gb|--4--4-4--4--4-4--4--4--4--4-4-4--------------------------------------------|
Db|--4--4-4--4--4-4--4--4--4--4-4-4-----5--5-5--5--5--5-5----4-4-4-------------|
Ab|--2--2-2--2--2-2--2--2--2--2-2-2-----5--5-5--5--5--5-5----4-4-4-------------|
Eb|-------------------------------------3--3-3--3--3--3-3----2-2-2-------------|
        P.M     P.M
     Drunk with the thought             right now

PRECHORUS TWO (1:35):

   (x1)
eb|--------------------------------------------------------------------------------|
Bb|--------------------------------------------------------------------------------|
Gb|--------------------------------------------------------------------------------|
Db|--2-----2---2--2--2--5-----5---5--5--5--9-----9---9--9--9--7-----7---7--7--7----|
Ab|--2-----2---2--2--2--5-----5---5--5--5--9-----9---9--9--9--7-----7---7--7--7----|
Eb|--0-0-0-0---0--0--0--3-3-3-3---3--3--3--7-7-7-7---7--7--7--5-5-5-5---5--5--5----|
       P.M.               P.M.               P.M.               P.M.
           I think      I think                  I think      we would know better

   (x1)
eb|----------------------------------------------------------------------------|
Bb|----------------------------------------------------------------------------|
Gb|----------------------------------------------------------------------------|
Db|---2-2-2-2-2-2-2-2-2-2-2-2-2-2-2-2--5-5-5-5-5-5-5-5-5-5-5-5-5-5-5-5---------|
Ab|---2-2-2-2-2-2-2-2-2-2-2-2-2-2-2-2--5-5-5-5-5-5-5-5-5-5-5-5-5-5-5-5---------|
Eb|---0-0-0-0-0-0-0-0-0-0-0-0-0-0-0-0--3-3-3-3-3-3-3-3-3-3-3-3-3-3-3-3---------|
          I think we're old enough        I think we're old enough

   (x1)
eb|----------------------------------------------------------------------------|
Bb|----------------------------------------------------------------------------|
Gb|----------------------------------------------------------------------------|
Db|---9-9-9-9-9-9-9-9-9-9-9-9-9-9-9-9--7-7-7-7-7-7-7-7-7-7-7-7-----------------|
Ab|---9-9-9-9-9-9-9-9-9-9-9-9-9-9-9-9--7-7-7-7-7-7-7-7-7-7-7-7-----------------|
Eb|---7-7-7-7-7-7-7-7-7-7-7-7-7-7-7-7--5-5-5-5-5-5-5-5-5-5-5-5-----------------|
          I think we're old enough         we would know better

BRIDGE (1:54)

   (x3)
eb|----------------------------------------------------------------------------|
Bb|----------------------------------------------------------------------------|
Gb|----------------------------------------------------------------------------|
Db|-------7-------------------9--------------5---------------------------------|
Ab|-------7--  RING  ---------9--  RING  ----5--  RING  -----------------------|
Eb|-------5-------------------7--------------3---------------------------------|
  1       I pretend              I pretend        I pretend
  2       I pretend              I pretend
  3       I pretend  that I'm already someone

   (x1)
eb|----------------------------------------------------------------------------|
Bb|----------------------------------------------------------------------------|
Gb|----------------------------------------------------------------------------|
Db|-------7-------------------9--------------5-------------5-------------------|
Ab|-------7--  RING  ---------9--  RING  ----5--  RING  ---5-- QUICK-----------|
Eb|-------5-------------------7--------------3-------------3-------------------|
          I pretend                          I pretend     I'm already someone

FINAL CHORUS (2:13)

   (x2)
eb|----------------------------------------------------------------------------|
Bb|----------------------------------------------------------------------------|
Gb|----------------------------------------------------------------------------|
Db|--7-7---7-7-7---9--9-9--9-9-9-9---5-5---5-5-5---7---7-7---7-7-7-7-----------|
Ab|--7-7---7-7-7---9--9-9--9-9-9-9---5-5---5-5-5---7---7-7---7-7-7-7- S T O P -|
Eb|--5-5---5-5-5---7--7-7--7-7-7-7---3-3---3-3-3---5---5-5---5-5-5-5-----------|
  1    I pretend that I'm already someone                faded away
  2    I pretend that I'm already someone                faded away

eb|------------------------------------------------------------------------------|
Bb|----------------------------------------------------  FINISH  ----------------|
Gb|-----------------------------------------------------  WITH  -----------------|
Db|----7---7-7-7---9--9-9--9-9-9-9---5-5-5-5-5-5-5-5---7  THIS 7-----------------|
Ab|----7---7-7-7---9--9-9--9-9-9-9---5-5-5-5-5-5-5-5---7-------7-----------------|
Eb|----5---5-5-5---7--7-7--7-7-7-7---3-3-3-3-3-3-3-3---5-5-5-5-5-----------------|
                                    P.M-------------|    P.M---------------------|
  1   I pretend that I'm already                     already someone
  2   I pretend that I'm already     all my problems     faded away



------------------------------------------------------------------------------
				VIII. MONTROSE
------------------------------------------------------------------------------


INTRO (0:03)

    GUITAR ONE
eb|--------------------------------------------------------------------------|
Bb|--------------------------------------------------------------------------|
Gb|--9-9-9-9-9-9-9-9-9-9-9-9-9-9-9-9-9-9-9-9-9-9-9-9-9-9-9-9-9-9-9-9---------|
Db|--x-x-x-x-x-x-x-x-x-x-x-x-x-x-x-x-x-x-x-x-x-x-x-x-x-x-x-x-x-x-x-x---------|
Ab|--7-7-7-7-7-7-7-7-7-7-7-7-7-7-7-7-7-7-7-7-7-7-7-7-7-7-7-7-7-7-7-7---------|
Eb|--------------------------------------------------------------------------|

Guitar One keeps playing this for the entire verse. If you're playing
by yourself, I recommend following the Guitar 2 progression below to
better fit vocals. It's played very gently underneath the octaves.

VERSE ONE (0:05)

   (x2)
eb|----------------------------------------------------------------------------|
Bb|----------------------------------------------------------------------------|
Gb|----------------------------------------------------------------------------|
Db|----------------------------------------------------------------------------|
Ab|---------2-2-2-2-2-2-2-2-2-2-2-2-2-2-2-2-2-2-2-2-2-2-2-2-2-2-2-2-2-2-2-2----|
Eb|---------0-0-0-0-0-0-0-0-0-0-0-0-0-0-0-0-0-0-0-0-0-0-0-0-0-0-0-0-0-0-0-0----|
         P.M-------------------------------------------------------------------|
  1  go                                                           At the least
  2                                                               That I didn't

eb|----------------------------------------------------------------------------|
Bb|----------------------------------------------------------------------------|
Gb|----------------------------------------------------------------------------|
Db|--6-6-6-6-6-6-6-6-6-6-6-6-6-6-6-6-------------------------------------------|
Ab|--4-4-4-4-4-4-4-4-4-4-4-4-4-4-4-4--6-6-6-6-6-6-6-6-6-6-6-6-X-X-X-X----------|
Eb|-----------------------------------4-4-4-4-4-4-4-4-4-4-4-4-X-X-X-X----------|
    P.M------------------------------------------------------------------------|
  1       to check in                     miss her grin
  2         never wanna see               you again

PRECHORUS ONE (0:21)

   (x2)
eb|--------------------------------------------------------------------------|
Bb|--------------------------------------------------------------------------|
Gb|----------------------------6--6-6-6-6-6----------------------------------|
Db|------------2---------------6--6-6-6-6-6-----6--6-6-6--4-4-4--------------|
Ab|------------2-- LET RING ---4--4-4-4-4-4-----6--6-6-6--4-4-4--------------|
Eb|------------0--------------------------------4--4-4-4--2-2-2--------------|
  1  And my  heart...          this is so hard, this is so hard
  2  And my  heart...          this is so hard, this is so hard

CHORUS ONE (0:36)

   (x1)
eb|----------------------------------------------------------------------------|
Bb|----------------------------------------------------------------------------|
Gb|--------------------------------------6-6-6-6-6-6-6-6-----------------------|
Db|--2--------------2-2----2-2-----------6-6-6-6-6-6-6-6--6-6-6-6-6-4-4-4------|
Ab|--2-- LET RING --2-2----2-2-- PAUSE --4-4-4-4-4-4-4-4--6-6-6-6-6-4-4-4------|
Eb---0--------------0-0----0-0----------------------------4-4-4-4-4-2-2-2------|
                    P.M--------------------------------------------------------|
	 the walls                        know I'm coming to your room

   (x1)
eb|--------------------------------------------------------------------------|
Bb|--------------------------------------------------------------------------|
Gb|-----------------------------6-------------------------------6------------|
Db|--2-2-2-2-2-2-2-2-2-2-2-2----6----2-2-2-2-2-2-2-2-2-2-2-2----6------------|
Ab|--2-2-2-2-2-2-2-2-2-2-2-2----4----2-2-2-2-2-2-2-2-2-2-2-2----4------------|
Eb|--0-0-0-0-0-0-0-0-0-0-0-0---------0-0-0-0-0-0-0-0-0-0-0-0-----------------|
      Do you hide all the  animals   The other boys bought for you

    GUITAR ONE (x1)
eb|---------------------------------------------------------------------------------|
Bb|---------------------------------------------------------------------------------|
Gb|---------------------------------------------------------------------------------|
Db|--6-6-6-6-6-6-6-6-6-6-6-6-6-6-6-6-6-6-6-6-6-6-6-6---4-4---4-4-4-4---2------------|
Ab|--6-6-6-6-6-6-6-6-6-6-6-6-6-6-6-6-6-6-6-6-6-6-6-6---4-4---4-4-4-4---2  LET RING  |
Eb|--4-4-4-4-4-4-4-4-4-4-4-4-4-4-4-4-4-4-4-4-4-4-4-4---2-2---2-2-2-2---0------------|
                                                       I wasn't surprised

    GUITAR TWO (x1) (Hit the octaves, then join in on the F# at end)
eb|---------------------------------------------------------------------------------|
Bb|---------------------------------------------------------------------------------|
Gb|--9-9-9-9-9-9-9-9-8-8-8-8-8-8-8-8-11-11-11-11-11-11-11-11------------------------|
Db|--x-x-x-x-x-x-x-x-x-x-x-x-x-x-x-x--x--x--x--x--x--x--x--x------------------------|
Ab|--7-7-7-7-7-7-7-7-6-6-6-6-6-6-6-6--9--9--9--9--9--9--9--9------------------------|
Eb|---------------------------------------------------------------------------------|

VERSE TWO (0:51)

   (x2)
eb|----------------------------------------------------------------------------|
Bb|----------------------------------------------------------------------------|
Gb|----------------------------------------------------------------------------|
Db|----------------------------------------------------------------------------|
Ab|---------2-2-2-2-2-2-2-2-2-2-2-2-2-2-2-2-2-2-2-2-2-2-2-2-2-2-2-2-2-2-2-2----|
Eb|---------0-0-0-0-0-0-0-0-0-0-0-0-0-0-0-0-0-0-0-0-0-0-0-0-0-0-0-0-0-0-0-0----|
         P.M-------------------------------------------------------------------|
                                                               1. She was
         2.   And   I   kept   my  distance                    I  was  the

eb|----------------------------------------------------------------------------|
Bb|----------------------------------------------------------------------------|
Gb|----------------------------------------------------------------------------|
Db|--6-6-6-6-6-6-6-6-6-6-6-6-6-6-6-6-------------------------------------------|
Ab|--4-4-4-4-4-4-4-4-4-4-4-4-4-4-4-4--6-6-6-6-6-6-6-6-6-6-6-6-4-4-4-4----------|
Eb|-----------------------------------4-4-4-4-4-4-4-4-4-4-4-4-2-2-2-2----------|
    P.M------------------------------------------------------------------------|
     1.     looking hot                    smoking pot
     2.     good boy                   one, two, three!

PRECHORUS TWO (1:06)

   (x2)
eb|----------------------------------------------------------------------------|
Bb|----------------------------------------------------------------------------|
Gb|----------------------------------------------------------------------------|
Db|--2-2-2-2-2-2-2-2-2-2-2-2-2-2-2-2-2-2-2-2-2-2-2-2-2-2-2-2-2-2-2-2-----------|
Ab|--2-2-2-2-2-2-2-2-2-2-2-2-2-2-2-2-2-2-2-2-2-2-2-2-2-2-2-2-2-2-2-2 S T O P---|
Eb|--0-0-0-0-0-0-0-0-0-0-0-0-0-0-0-0-0-0-0-0-0-0-0-0-0-0-0-0-0-0-0-0-----------|
  P.M--------------------------------------------------------------------------|
  1   heart            caves      in     when  I    look   at         you
  2   heart            caves      in     when  I    look   at         you

eb|--------------------------------------------------------------------------|
Bb|--------------------------------------------------------------------------|
Gb|--6--6-6-6-6-6------------------------------------------------------------|
Db|--6--6-6-6-6-6--------6--6-6-6--4-4-4-------------------------------------|
Ab|--4--4-4-4-4-4--------6--6-6-6--4-4-4-------------------------------------|
Eb|----------------------4--4-4-4--2-2-2-------------------------------------|
  1   this is so hard    this is so hard
  2   this is so hard    this is so hard

CHORUS TWO (1:21):

   (x1)
eb|----------------------------------------------------------------------------|
Bb|----------------------------------------------------------------------------|
Gb|--------------------------------------6-6-6-6-6-6-6-6-----------------------|
Db|--2--------------2-2----2-2-----------6-6-6-6-6-6-6-6--6-6-6-6-6-4-4-4------|
Ab|--2-- LET RING --2-2----2-2-- PAUSE --4-4-4-4-4-4-4-4--6-6-6-6-6-4-4-4------|
Eb---0--------------0-0----0-0----------------------------4-4-4-4-4-2-2-2------|
                    P.M--------------------------------------------------------|
	the walls                        know I'm coming to your room

   (x1)
eb|--------------------------------------------------------------------------|
Bb|--------------------------------------------------------------------------|
Gb|-----------------------------6-------------------------------6------------|
Db|--2-2-2-2-2-2-2-2-2-2-2-2----6----2-2-2-2-2-2-2-2-2-2-2-2----6------------|
Ab|--2-2-2-2-2-2-2-2-2-2-2-2----4----2-2-2-2-2-2-2-2-2-2-2-2----4------------|
Eb|--0-0-0-0-0-0-0-0-0-0-0-0---------0-0-0-0-0-0-0-0-0-0-0-0-----------------|
      Do you hide all the  animals   The other boys bought for you

    GUITAR ONE (x1)
eb|--------------------------------------------------------------------------|
Bb|--------------------------------------------------------------------------|
Gb|--------------------------------------------------------------------------|
Db|--6-6-6-6-6-6-6-6-6-6-6-6-6-6-6-6-6-6-6-6-6-6-6-6--4-4-4-4-4-4-4-4--------|
Ab|--6-6-6-6-6-6-6-6-6-6-6-6-6-6-6-6-6-6-6-6-6-6-6-6--4-4-4-4-4-4-4-4--------|
Eb|--4-4-4-4-4-4-4-4-4-4-4-4-4-4-4-4-4-4-4-4-4-4-4-4--2-2-2-2-2-2-2-2--------|


    GUITAR TWO (x1) (Hit octaves with rhythm's G#, then ^^ join in on the F#)
eb|--------------------------------------------------------------------------|
Bb|--------------------------------------------------------------------------|
Gb|--9-9-9-9-9-9-9-9-8-8-8-8-8-8-8-8-11-11-11-11-11-11-11-11-----------------|
Db|--x-x-x-x-x-x-x-x-x-x-x-x-x-x-x-x--x--x--x--x--x--x--x--x-----------------|
Ab|--7-7-7-7-7-7-7-7-6-6-6-6-6-6-6-6--9--9--9--9--9--9--9--9-----------------|
Eb|--------------------------------------------------------------------------|

BRIDGE (1:35)

   GUITAR ONE (x2):
eb|--------------------------------------------------------------------------|
Bb|--------------------------------------------------------------------------|
Gb|--------------------------------------------------------------------------|
Db|--2-2-2-2-2-2-2-2-2-2-2-2-2-2-2-2-2-2-2-2-2-2-2-2-2-2-2-2-2-2-2-2---------|
Ab|--2-2-2-2-2-2-2-2-2-2-2-2-2-2-2-2-2-2-2-2-2-2-2-2-2-2-2-2-2-2-2-2---------|
Eb|--0-0-0-0-0-0-0-0-0-0-0-0-0-0-0-0-0-0-0-0-0-0-0-0-0-0-0-0-0-0-0-0---------|

eb|--------------------------------------------------------------------------|
Bb|--------------------------------------------------------------------------|
Gb|--6-6-6-6-6-6-6-6-6-6-6-6-6-6-6-6-----------------------------------------|
Db|--6-6-6-6-6-6-6-6-6-6-6-6-6-6-6-6-6-6-6-6-6-6-6-6-6-6-6-6-4-4-4-4---------|
Ab|--4-4-4-4-4-4-4-4-4-4-4-4-4-4-4-4-6-6-6-6-6-6-6-6-6-6-6-6-4-4-4-4---------|
Eb|----------------------------------4-4-4-4-4-4-4-4-4-4-4-4-2-2-2-2---------|

   GUITAR TWO (x1)
eb|--------------------------------------------------------------------------|
Bb|--------------------------------------------------------------------------|
Gb|--11---9-8-9---11-----9p8-11---9p8-9---9p8-11---9p8-9---------------------|
Db|--------------------------------------------------------------------------|
Ab|--------------------------------------------------------------------------|
Eb|--------------------------------------------------------------------------|
    There may be a couple notes missing (Improvise!)
eb|--------------------------------------------------------------------------|
Bb|--------------------------------------------------------------------------|
Gb|--9--9--8-----------8--9--8--------------11---9---8---9-------------------|
Db|-----------9------9---------9----------9----9---9---9---------------------|
Ab|-- (1:43) ----- (1:45) ------------- (1:48) ------------------------------|
Eb|--------------------------------------------------------------------------|

BREAKDOWN FOR ALL THE ANGRY BROS (1:50)

   GUITAR ONE (x2):
eb|-------------------------------------------------------------|-------------|
Bb|------------------------------- -----------------------------|-------------|
Gb|-------------------------6--6--6--6--6--6--------------------|------ LET --|
Db|---2-2------2-2--2-2-----6--6--6--6--6--6---6--6--6--4--4--4-|--2--- RING--|
Ab|---2-2------2-2--2-2-----4--4--4--4--4--4---6--6--6--4--4--4-|--2----------|
Eb|---0-0------0-0--0-0------------------------4--4--4--2--2--2-|--0----------|
     P.M----------------|                                       *2------------|nd time only*

   GUITAR TWO:
eb|------------------------------------||------------------------------------|
Bb|------------------------------------||------------------------------------|
Gb|----8-----9-----8---11-----9-----8--||----8-----9-----8---11-----9-8-8-8--|
Db|--9---9-9---9-9---9----9-9---9-9----||--9---9-9---9-9---9----9-9---------9|
Ab|------------------------------------||------------------------------------|
Eb|      PLAY THIS THREE TIMES (x3)    ||   THEN FINISH OFF WITH THIS (x1)   |

PIANO MELODY (2:05)

   (x4)
eb|------------------------------------|
Bb|------------------------------------|
Gb|----------11--9--8------------------|
Db|--------------------9---------------|
Ab|------------------------------------|
Eb|------------------------------------|

NOTE: The melody is played three times, then once distorted and barely audible.
If you're sticking with (x3), give a pause before the final chorus

CHORUS THREE (2:12):

   (x1)
eb|--------------------------------------------------------------------------|
Bb|--------------------------------------------------------------------------|
Gb|--------------------------------------------------------------------------|
Db|--2-2-2-2-2-2-2-2-2-2-2-2-2-2-2-2-2-2-2-2-2-2-2-2-2-2-2-2-2-2-2-2---------|
Ab|--2-2-2-2-2-2-2-2-2-2-2-2-2-2-2-2-2-2-2-2-2-2-2-2-2-2-2-2-2-2-2-2---------|
Eb|--0-0-0-0-0-0-0-0-0-0-0-0-0-0-0-0-0-0-0-0-0-0-0-0-0-0-0-0-0-0-0-0---------|
      Pictures off the walls

   (x1)
eb|--------------------------------------------------------------------------|
Bb|--------------------------------------------------------------------------|
Gb|--6-6-6-6-6-6-6-6-6-6-6-6-6-6-6-6-----------------------------------------|
Db|--6-6-6-6-6-6-6-6-6-6-6-6-6-6-6-6-6-6-6-6-6-6-6-6-6-6-6-6-4-4-4-4---------|
Ab|--4-4-4-4-4-4-4-4-4-4-4-4-4-4-4-4-6-6-6-6-6-6-6-6-6-6-6-6-4-4-4-4---------|
Eb|----------------------------------4-4-4-4-4-4-4-4-4-4-4-4-2-2-2-2---------|
      know I'm coming                  to     your      rooom

   (x1)
eb|--------------------------------------------------------------------------|
Bb|--------------------------------------------------------------------------|
Gb|-----------------------------6-------------------------------6------------|
Db|--2-2-2-2-2-2-2-2-2-2-2-2----6----2-2-2-2-2-2-2-2-2-2-2-2----6------------|
Ab|--2-2-2-2-2-2-2-2-2-2-2-2----4----2-2-2-2-2-2-2-2-2-2-2-2----4------------|
Eb|--0-0-0-0-0-0-0-0-0-0-0-0---------0-0-0-0-0-0-0-0-0-0-0-0-----------------|
      Do you hide all the  animals   The other boys bought for you

    GUITAR ONE (x1)
eb|--------------------------------------------------------------------------|
Bb|--------------------------------------------------------------------------|
Gb|--------------------------------------------------------------------------|
Db|--6-6-6-6-6-6-6-6-6-6-6-6-6-6-6-6-6-6-6-6-6-6-6-6--4-4-4-4-4-4-4-4--------|
Ab|--6-6-6-6-6-6-6-6-6-6-6-6-6-6-6-6-6-6-6-6-6-6-6-6--4-4-4-4-4-4-4-4--------|
Eb|--4-4-4-4-4-4-4-4-4-4-4-4-4-4-4-4-4-4-4-4-4-4-4-4--2-2-2-2-2-2-2-2--------|


    GUITAR TWO (x1)(Hit octaves with rhythm's G#, then ^^ join in on the F#)
eb|--------------------------------------------------------------------------|
Bb|--------------------------------------------------------------------------|
Gb|--9-9-9-9-9-9-9-9-8-8-8-8-8-8-8-8-11-11-11-11-11-11-11-11-----------------|
Db|--x-x-x-x-x-x-x-x-x-x-x-x-x-x-x-x--x--x--x--x--x--x--x--x-----------------|
Ab|--7-7-7-7-7-7-7-7-6-6-6-6-6-6-6-6--9--9--9--9--9--9--9--9-----------------|
Eb|--------------------------------------------------------------------------|

FINAL CHORUS / OUTRO RIFF (2:27)

   (x1)
eb|--------------------------------------------------------------------------|
Bb|--------------------------------------------------------------------------|
Gb|--------------------------------------------------------------------------|
Db|--2-2-2-2-2-2-2-2-2-2-2-2-2-2-2-2-2-2-2-2-2-2-2-2-2-2-2-2-2-2-2-2---------|
Ab|--2-2-2-2-2-2-2-2-2-2-2-2-2-2-2-2-2-2-2-2-2-2-2-2-2-2-2-2-2-2-2-2---------|
Eb|--0-0-0-0-0-0-0-0-0-0-0-0-0-0-0-0-0-0-0-0-0-0-0-0-0-0-0-0-0-0-0-0---------|
      Pictures off the walls

   (x1)
eb|--------------------------------------------------------------------------|
Bb|--------------------------------------------------------------------------|
Gb|--6-6-6-6-6-6-6-6-6-6-6-6-6-6-6-6-----------------------------------------|
Db|--6-6-6-6-6-6-6-6-6-6-6-6-6-6-6-6-6-6-6-6-6-6-6-6-6-6-6-6-4-4-4-4---------|
Ab|--4-4-4-4-4-4-4-4-4-4-4-4-4-4-4-4-6-6-6-6-6-6-6-6-6-6-6-6-4-4-4-4---------|
Eb|----------------------------------4-4-4-4-4-4-4-4-4-4-4-4-2-2-2-2---------|
      know I'm coming                  to     your      rooom

   (x1)
eb|--------------------------------------------------------------------------|
Bb|--------------------------------------------------------------------------|
Gb|-----------------------------6-------------------------------6------------|
Db|--2-2-2-2-2-2-2-2-2-2-2-2----6----2-2-2-2-2-2-2-2-2-2-2-2----6------------|
Ab|--2-2-2-2-2-2-2-2-2-2-2-2----4----2-2-2-2-2-2-2-2-2-2-2-2----4------------|
Eb|--0-0-0-0-0-0-0-0-0-0-0-0---------0-0-0-0-0-0-0-0-0-0-0-0-----------------|
      Do you hide all the  animals   The other boys bought     you

    GUITAR ONE (x1)
eb|--------------------------------------------------------------------------|
Bb|--------------------------------------------------------------------------|
Gb|--------------------------------------------------------------------------|
Db|--6-6-6-6-6-6-6-6-6-6-6-6-6-6-6-6----6---8---9---6-----------2------------|
Ab|--6-6-6-6-6-6-6-6-6-6-6-6-6-6-6-6----6---8---9---6-- Woah! --2-- LET RING |
Eb|--4-4-4-4-4-4-4-4-4-4-4-4-4-4-4-4----4---6---7---4-----------0------------|


    GUITAR TWO (x1) (Hit octaves with rhythm's G#)
eb|--------------------------------------------------------------------------|
Bb|--------------------------------------------------------------------------|
Gb|--9-9-9-9-9-9-9-9-8-8-8-8-8-8-8-8-----------------------------------------|
Db|--x-x-x-x-x-x-x-x-x-x-x-x-x-x-x-x----6---8---9---6-----------2------------|
Ab|--7-7-7-7-7-7-7-7-6-6-6-6-6-6-6-6----6---8---9---6-- Woah! --2-- LET RING |
Eb|-------------------------------------4---6---7---4-----------0------------|



-----------------------------------------------------------------------------
				IX. FM DIAL STYLE
-----------------------------------------------------------------------------


VERSE ONE (0:00)

   (x3)
eb|--------------------------------------------------------------------------|
Bb|--------------------------------------------------------------------------|
Gb|--7-7-7-7-7-7-7-7---------------------------------------------------------|
Db|--7-7-7-7-7-7-7-7---7-7-7-7-7-7-7-7---9-9-9-9-9-9-9-9---5-5-5-5-5-5-5-5---|
Ab|--5-5-5-5-5-5-5-5---7-7-7-7-7-7-7-7---9-9-9-9-9-9-9-9---5-5-5-5-5-5-5-5---|
Eb|--------------------5-5-5-5-5-5-5-5---7-7-7-7-7-7-7-7---3-3-3-3-3-3-3-3---|
  1   Let's go          home  to  a       place we can       own      We
  2   live there        in love forever   never have to be   alone
  3   Would you         try, would you    leave me for       guy      I've

   (x1)  Same progression, but with palm chucks at the end
eb|----------------------------------------------------------------------------|
Bb|----------------------------------------------------------------------------|
Gb|--7-7-7-7-7-7-7-7-----------------------------------------------------------|
Db|--7-7-7-7-7-7-7-7---7-7-7-7-7-7-7-7---9-9-9-9-9-9-9-9---5-5-5-5-5-5-5-5-----|
Ab|--5-5-5-5-5-5-5-5---7-7-7-7-7-7-7-7---9-9-9-9-9-9-9-9---5-5-5-5-5-5-5-5-----|
Eb|--------------------5-5-5-5-5-5-5-5---7-7-7-7-7-7-7-7---3-3-3-3-3-3-3-3-----|
                                                           P.M-----------------|
      sitting without   thinking          wishing you        inside

CHORUS ONE (0:27)

   (x3)
eb|--------------------------------------------------------------------------|
Bb|--------------------------------------------------------------------------|
Gb|--------------------------------------7-7-7-7-7-7-7-7---------------------|
Db|--5-5-5-5-5-5-5-5---7-7-7-7-7-7-7-7---7-7-7-7-7-7-7-7---5-5-5-5-5-5-5-5---|
Ab|--5-5-5-5-5-5-5-5---7-7-7-7-7-7-7-7---5-5-5-5-5-5-5-5---5-5-5-5-5-5-5-5---|
Eb|--3-3-3-3-3-3-3-3---5-5-5-5-5-5-5-5---------------------3-3-3-3-3-3-3-3---|
  1   When you wake      will call me    I will tell you that I miss you so
  2   I make records so that when I'm    You can hear me on your stereo
  3   Loooove                            Lo-oh-oh-oh-ooove      I think we're

   (x1)
eb|--------------------------------------------------------------------------|
Bb|--------------------------------------------------------------------------|
Gb|--------------------------------------7-7-7-7-7-7-7-7---------------------|
Db|--5-5-5-5-5-5-5-5---7-7-7-7-7-7-7-7---7-7-7-7-7-7-7-7---5-5-5-5-x-x---5---|
Ab|--5-5-5-5-5-5-5-5---7-7-7-7-7-7-7-7---5-5-5-5-5-5-5-5---5-5-5-5-x-x---5---|
Eb|--3-3-3-3-3-3-3-3---5-5-5-5-5-5-5-5---------------------3-3-3-3-x-x---3---|
      Loooove                            Oooh, oooh, ooh


VERSE TWO (0:55)

   (x1)
eb|--------------------------------------------------------------------------|
Bb|--------------------------------------------------------------------------|
Gb|--7-7-7-7-7-7-7-7---------------------------------------------------------|
Db|--7-7-7-7-7-7-7-7---7-7-7-7-7-7-7-7---9-9-9-9-9-9-9-9---5-5-5-5-5-5-5-5---|
Ab|--5-5-5-5-5-5-5-5---7-7-7-7-7-7-7-7---9-9-9-9-9-9-9-9---5-5-5-5-5-5-5-5---|
Eb|--------------------5-5-5-5-5-5-5-5---7-7-7-7-7-7-7-7---3-3-3-3-3-3-3-3---|
             I'm so tired   Since I       met you, I'm always  inspired

   (x1)
eb|----------------------------------------------------------------------------|
Bb|----------------------------------------------------------------------------|
Gb|--7-------------------------------------------------------------------------|
Db|--7-----------------7-----------------9-9-9-9-9-9-9-9---5-------------------|
Ab|--5-----------------7-----------------9-9-9-9-9-9-9-9---5-- HOLD -----------|
Eb|--------------------5-----------------7-7-7-7-7-7-7-7---3-------------------|
                                       P.M-------------------------------------|
       could teach the   really my         And we would    desired

SOLO (1:09)

**  Rhythm continues playing verse chords  **

   (x1)
eb|--------------------------------------------------------------------------|
Bb|--------------------------------------------------------------------------|
Gb|--11-9-11-9---------------------------------------------------------------|
Db|---------------11-9-11-9---------------------------7----------------------|
Ab|----------------------------9--9-7-9--9-7-9--9-7-9---9-7------------------|
Eb|--------------------------------------------------------------------------|

   (x1)
eb|--------------------------------------------------------10-12-12b14-10----|
Bb|----------10------------9-------------------------10-12----------------12-|
Gb|--11-9-11-------11-9-11---11-9--------------------------------------------|
Db|-------------------------------11-----------------------------------------|
Ab|- (1:16) ---------------------------9--9-7-9--9-7-------------------------|
Eb|--------------------------------------------------------------------------|

FINAL CHORUS (1:27)

   (x3)
eb|--------------------------------------------------------------------------|
Bb|--------------------------------------------------------------------------|
Gb|--------------------------------------7-7-7-7-7-7-7-7---------------------|
Db|--5-5-5-5-5-5-5-5---7-7-7-7-7-7-7-7---7-7-7-7-7-7-7-7---5-5-5-5-5-5-5-5---|
Ab|--5-5-5-5-5-5-5-5---7-7-7-7-7-7-7-7---5-5-5-5-5-5-5-5---5-5-5-5-5-5-5-5---|
Eb|--3-3-3-3-3-3-3-3---5-5-5-5-5-5-5-5---------------------3-3-3-3-3-3-3-3---|
  1   When you wake      will call me    I will tell you that I miss you so
  2   I make records so that when I'm    You can hear me on your stereo
  3   Loooove                            Lo-oh-oh-oh-ooove      I think we're

   (x1)
eb|--------------------------------------------------------------------------|
Bb|--------------------------------------------------------------------------|
Gb|--------------------------------------7-7-7-7-7-7-7-7---------------------|
Db|--5-5-5-5-5-5-5-5---7-7-7-7-7-7-7-7---7-7-7-7-7-7-7-7---5-5-5-5-x-x-x-x---|
Ab|--5-5-5-5-5-5-5-5---7-7-7-7-7-7-7-7---5-5-5-5-5-5-5-5---5-5-5-5-x-x-x-x---|
Eb|--3-3-3-3-3-3-3-3---5-5-5-5-5-5-5-5---------------------3-3-3-3-x-x-x-x---|
      Loooove                            Oooh, oooh, ooh

   (x2)
eb|--------------------------------------------------------------------------|
Bb|--------------------------------------------------------------------------|
Gb|--------------------------------------7-7-7-7-7-7-7-7---------------------|
Db|--5-5-5-5-5-5-5-5---7-7-7-7-7-7-7-7---7-7-7-7-7-7-7-7---5-5-5-5-5-5-5-5---|
Ab|--5-5-5-5-5-5-5-5---7-7-7-7-7-7-7-7---5-5-5-5-5-5-5-5---5-5-5-5-5-5-5-5---|
Eb|--3-3-3-3-3-3-3-3---5-5-5-5-5-5-5-5---------------------3-3-3-3-3-3-3-3---|
  1   When you wake      will call me    I will tell you that I miss you so
  2   I make records so that when I'm    You can hear me everywhere you go

OUTRO (2:04)

   (x1)
eb|----------------------------|
Bb|----------------------------|
Gb|--7--------------------7----|
Db|--7----7----9----5--7--7----|
Ab|--5----7----9----5--7--5----|
Eb|-------5----7----3--5-------|



------------------------------------------------------------------------------
				X. I LIKE YOU
------------------------------------------------------------------------------


VERSE ONE (0:09)

    **BASS** (x2)
eb|--------------------------------------------------------------------------|
Bb|--------------------------------------------------------------------------|
Gb|--------------------------------------------------------------------------|
Db|--------------------------------------------------------------------------|
Ab|-------------------3-3-3-3-3-3-3-3----------3-3-3-3-5-5-5-5-5-5-5-5-------|
Eb|--0-0-0-0-0-0-0-0-------------------3-3-3-3-------------------------------|

    **GUITAR** (x2) - Be gentle on the power chords and improvise if you want
eb|--------------------------------------------------------------------------|
Bb|--------------------------------------------------------------------------|
Gb|-------5--------------5-----------------------------7---------------------|
Db|--2-------5--------------5------------5-------5-----7---------------------|
Ab|--2----------------3--------------------5-------5---5---------------------|
Eb|--0---------------------------------3-------3-----------------------------|
  1     Looks like     hands, who        all     could       be
  2     All I know     pretend you're    close     to        me

PRECHORUS ONE (0:29)

eb|----------------------------------------------------------------------------|
Bb|----------------------------------------------------------------------------|
Gb|-----------------------------------5--5-5-5-5-5-5-5-5-5-5-5-5-5-5-----------|
Db|--2--2-2-2-2-2-2-2-2-2-2-2-2-2-2---5--5-5-5-5-5-5-5-5-5-5-5-5-5-5-----------|
Ab|--2--2-2-2-2-2-2-2-2-2-2-2-2-2-2---3--3-3-3-3-3-3-3-3-3-3-3-3-3-3-----------|
Eb|--0--0-0-0-0-0-0-0-0-0-0-0-0-0-0--------------------------------------------|
        P.M------------------------|     P.M-----------------------------------|
          Laying somewhere where I'm happy that I'm here      And my


eb|----------------------------------------------------------------------------|
Bb|----------------------------------------------------------------------------|
Gb|----------------------------------------------------------------------------|
Db|--5--5-5-5-5-5-5-5-5-5-5-5-5-5-5---4-4-4-4-4-4-4-4-4-4-4-4-4-4-4-4----------|
Ab|--5--5-5-5-5-5-5-5-5-5-5-5-5-5-5---5-5-5-5-5-5-5-5-5-5-5-5-5-5-5-5----------|
Eb|--3--3-3-3-3-3-3-3-3-3-3-3-3-3-3---2-2-2-2-2-2-2-2-2-2-2-2-2-2-2-2----------|
        P.M--------------------------------------------------------------------|
      troubles say goodbye and the     heartache disappeared

eb|----------------------------------------------------------------------------|
Bb|----------------------------------------------------------------------------|
Gb|-----------------------------------5--5-5-5-5-5-5-5-5-5-5-5-5-5-5-----------|
Db|--2--2-2-2-2-2-2-2-2-2-2-2-2-2-2---5--5-5-5-5-5-5-5-5-5-5-5-5-5-5-----------|
Ab|--2--2-2-2-2-2-2-2-2-2-2-2-2-2-2---3--3-3-3-3-3-3-3-3-3-3-3-3-3-3-----------|
Eb|--0--0-0-0-0-0-0-0-0-0-0-0-0-0-0--------------------------------------------|
        P.M------------------------|     P.M-----------------------------------|
           I miss you most when I     act like I don't care bout the

eb|--------------------------------------------------------------------------|
Bb|--------------------------------------------------------------------------|
Gb|------------------------------------5------------7----7----7--------------|
Db|--5---------------------------------5------------7----7----7--------------|
Ab|--5---------------------------------3------------5----5----5--------------|
Eb|--3-----------------------------------------------------------------------|
       warm hands, I think that we're  best friends

VERSE TWO (0:48)

    **BASS** (x2)
eb|--------------------------------------------------------------------------|
Bb|--------------------------------------------------------------------------|
Gb|--------------------------------------------------------------------------|
Db|--------------------------------------------------------------------------|
Ab|-------------------3-3-3-3-3-3-3-3----------3-3-3-3-5-5-5-5-5-5-5-5-------|
Eb|--0-0-0-0-0-0-0-0-------------------3-3-3-3-------------------------------|

    **GUITAR** (x1) - Join on bass's second round
eb|--------------------------------------------------------------------------|
Bb|--------------------------------------------------------------------------|
Gb|-------5--------------5-----------------------------7---------------------|
Db|--2-------5--------------5------------5-------5-----7---------------------|
Ab|--2----------------3--------------------5-------5---5---------------------|
Eb|--0---------------------------------3-------3-----------------------------|
  1    I like your    you're ever-     girl   could     be
  2  toast to         now and I just   w   o   n  '  t  leave  (I'm finally)

PRECHORUS TWO (1:07)

   (x1)
eb|--------------------------------------------------------------------------|
Bb|--------------------------------------------------------------------------|
Gb|-----------------------------------5-5-5-5-5-5-5-5-5-5-5-5-5-5-5-5--------|
Db|--2-2-2-2-2-2-2-2-2-2-2-2-2-2-2-2--5-5-5-5-5-5-5-5-5-5-5-5-5-5-5-5--------|
Ab|--2-2-2-2-2-2-2-2-2-2-2-2-2-2-2-2--3-3-3-3-3-3-3-3-3-3-3-3-3-3-3-3--------|
Eb|--0-0-0-0-0-0-0-0-0-0-0-0-0-0-0-0-----------------------------------------|
         Laying somewhere where I'm   happy that I'm here      And my

   (x1)
eb|--------------------------------------------------------------------------|
Bb|--------------------------------------------------------------------------|
Gb|--------------------------------------------------------------------------|
Db|--5-5-5-5-5-5-5-5-5-5-5-5-5-5-5-5--4-4-4-4-4-4-4-4-4-4-4-4-4-4-4-4--------|
Ab|--5-5-5-5-5-5-5-5-5-5-5-5-5-5-5-5--5-5-5-5-5-5-5-5-5-5-5-5-5-5-5-5--------|
Eb|--3-3-3-3-3-3-3-3-3-3-3-3-3-3-3-3--2-2-2-2-2-2-2-2-2-2-2-2-2-2-2-2--------|
       troubles say goodbye and the     heartache disappeared

   (x1)
eb|--------------------------------------------------------------------------|
Bb|--------------------------------------------------------------------------|
Gb|-----------------------------------5-5-5-5-5-5-5-5-5-5-5-5-5-5-5-5--------|
Db|--2-2-2-2-2-2-2-2-2-2-2-2-2-2-2-2--5-5-5-5-5-5-5-5-5-5-5-5-5-5-5-5--------|
Ab|--2-2-2-2-2-2-2-2-2-2-2-2-2-2-2-2--3-3-3-3-3-3-3-3-3-3-3-3-3-3-3-3--------|
Eb|--0-0-0-0-0-0-0-0-0-0-0-0-0-0-0-0-----------------------------------------|
        I miss you most when I         act like I don't care bout the

   (x1)
eb|--------------------------------------------------------------------------|
Bb|--------------------------------------------------------------------------|
Gb|------------------------------------5------------7----7----7----7---------|
Db|--5---------------------------------5------------7----7----7----7---------|
Ab|--5---------------------------------3------------5----5----5----5---------|
Eb|--3-----------------------------------------------------------------------|
       warm hands, I think that we're  best friends

CHORUS ONE (1:26)

   (x1)
eb|--------------------------------------------------------------------------|
Bb|--------------------------------------------------------------------------|
Gb|----------------------------------5--5-5--5-5-5--5--5-5--5-5-5------------|
Db|--5--5-5--5-5-5--5--5-5--5-5-5----5--5-5--5-5-5--5--5-5--5-5-5------------|
Ab|--5--5-5--5-5-5--5--5-5--5-5-5----3--3-3--3-3-3--3--3-3--3-3-3------------|
Eb|--3--3-3--3-3-3--3--3-3--3-3-3--------------------------------------------|
      You and me,    we could        be

   (x1)
eb|--------------------------------------------------------------------------|
Bb|--------------------------------------------------------------------------|
Gb|----------------------------------7--7-7--7-7-7--7--7-7--7-7-7------------|
Db|--5--5-5--5-5-5--5--5-5--5-5-5----7--7-7--7-7-7--7--7-7--7-7-7------------|
Ab|--5--5-5--5-5-5--5--5-5--5-5-5----5--5-5--5-5-5--5--5-5--5-5-5------------|
Eb|--3--3-3--3-3-3--3--3-3--3-3-3--------------------------------------------|
      You and me,   I could          see      (I'm in it for the

   (x1)
eb|--------------------------------------------------------------------------|
Bb|--------------------------------------------------------------------------|
Gb|----------------------------------5--5-5--5-5-5--5--5-5--5-5-5------------|
Db|--2--2-2--2-2-2--2--2-2--2-2-2----5--5-5--5-5-5--5--5-5--5-5-5------------|
Ab|--2--2-2--2-2-2--2--2-2--2-2-2----3--3-3--3-3-3--3--3-3--3-3-3------------|
Eb|--0--0-0--0-0-0--0--0-0--0-0-0--------------------------------------------|
      You and me,    we could        be       (I'm in it for the

   (x1)
eb|--------------------------------------------------------------------------|
Bb|--------------------------------------------------------------------------|
Gb|----------------------------------7----7----7----7------------------------|
Db|--5--5-5--5-5-5--5--5-5--5-5-5----7----7----7----7------------------------|
Ab|--5--5-5--5-5-5--5--5-5--5-5-5----5----5----5----5------------------------|
Eb|--3--3-3--3-3-3--3--3-3--3-3-3--------------------------------------------|
      You and me,   I could          see         I like you

SOLO (1:46):

** Rhythm continues playing chorus **

   (x1)
eb|--------------------------------------------------------------------------|
Bb|--------------------------------------------------------------------------|
Gb|--------------------------------------------------------------------------|
Db|--12-12-12--9-9h10p9-9---12-12-12--9-9-9----10---9---9h10p9-7-------------|
Ab|--------------------------------------------------------------------------|
Eb|--------------------------------------------------------------------------|

   (x1)
eb|-----------------------------------7-8-7----7--------10-7---10-7---10-7---|
Bb|------8-10-8-7--------8-10-8---10--------10---10----------8------8--------|
Gb|----7---------------7-----------------------------------------------------|
Db|--9---------------9-------------------------------------------------------|
Ab|--------------------------------------------------------------------------|
Eb|--------------------------------------------------------------------------|

FINAL CHORUS (2:05)

   (x1)
eb|--------------------------------------------------------------------------|
Bb|--------------------------------------------------------------------------|
Gb|----------------------------------5--5-5--5-5-5--5--5-5--5-5-5------------|
Db|--5--5-5--5-5-5--5--5-5--5-5-5----5--5-5--5-5-5--5--5-5--5-5-5------------|
Ab|--5--5-5--5-5-5--5--5-5--5-5-5----3--3-3--3-3-3--3--3-3--3-3-3------------|
Eb|--3--3-3--3-3-3--3--3-3--3-3-3--------------------------------------------|
       Back you'll be running                      You better come

   (x1)
eb|--------------------------------------------------------------------------|
Bb|--------------------------------------------------------------------------|
Gb|----------------------------------7--7-7--7-7-7--7--7-7--7-7-7------------|
Db|--5--5-5--5-5-5--5--5-5--5-5-5----7--7-7--7-7-7--7--7-7--7-7-7------------|
Ab|--5--5-5--5-5-5--5--5-5--5-5-5----5--5-5--5-5-5--5--5-5--5-5-5------------|
Eb|--3--3-3--3-3-3--3--3-3--3-3-3--------------------------------------------|
       Back you'll be running                    I'm in for the

   (x1)
eb|--------------------------------------------------------------------------|
Bb|--------------------------------------------------------------------------|
Gb|----------------------------------5--5-5--5-5-5--5--5-5--5-5-5------------|
Db|--2--2-2--2-2-2--2--2-2--2-2-2----5--5-5--5-5-5--5--5-5--5-5-5------------|
Ab|--2--2-2--2-2-2--2--2-2--2-2-2----3--3-3--3-3-3--3--3-3--3-3-3------------|
Eb|--0--0-0--0-0-0--0--0-0--0-0-0--------------------------------------------|
       Back you'll be running                    I'm in for the

   (x1)
eb|--------------------------------------------------------------------------|
Bb|--------------------------------------------------------------------------|
Gb|----------------------------------7----7----7----7------------------------|
Db|--5--5-5--5-5-5--5--5-5--5-5-5----7----7----7----7------------------------|
Ab|--5--5-5--5-5-5--5--5-5--5-5-5----5----5----5----5------------------------|
Eb|--3--3-3--3-3-3--3--3-3--3-3-3--------------------------------------------|
      l  o  n  g    h  a  u  l       see           I like you

END ON (2:25)

   (x1)
eb|-----|
Bb|-----|
Gb|-----|
Db|--5--|
Ab|--5--|
Eb|--3--|



------------------------------------------------------------------------------
				XI. SEPTEMBERISM
------------------------------------------------------------------------------


INTRO, PART ONE (0:00)

   (x1)
eb|----------------------------------------------------------------------------|
Bb|----------------------------------------------------------------------------|
Gb|----------------------------------------------------------------------------|
Db|----------------------------------------------------------------------------|
Ab|--4-4-4-5-5-5-7-7-7-7-7-7-7-7-7-7---4-4-4-5-5-5-7-7-7-7-7-7-7-7-7-7---------|
Eb|----------------------------------------------------------------------------|
  P.M--------------------------------------------------------------------------| Alright

INTRO, PART TWO (0:05)

   (x2)
eb|--------------------------------------------------------------------------|
Bb|--------------------------------------------------------------------------|
Gb|----------------7-------------7-------------------------------------------|
Db|--2-2-2-4-4-4---7-------------7---7-7-7-7-7-7-7-7-7-7-7-7-7-7-7-7---------|
Ab|--2-2-2-4-4-4---5-------------5---7-7-7-7-7-7-7-7-7-7-7-7-7-7-7-7---------|
Eb|--0-0-0-2-2-2---------------------5-5-5-5-5-5-5-5-5-5-5-5-5-5-5-5---------|

VERSE ONE (0:16)

   (x1)
eb|--------------------------------------------------------------------------|
Bb|--------------------------------------------------------------------------|
Gb|--4--4--4--4--4--4---4-4-4-4----7--7--7--7--7--7---7-7-7-7----------------|
Db|--4--4--4--4--4--4---4-4-4-4----7--7--7--7--7--7---7-7-7-7----------------|
Ab|--2--2--2--2--2--2---2-2-2-2----5--5--5--5--5--5---5-5-5-5----------------|
Eb|--------------------------------------------------------------------------|
     The rain poured                hang with you      and

   (x1)
eb|--------------------------------------------------------------------------|
Bb|--------------------------------------------------------------------------|
Gb|--------------------------------------------------------------------------|
Db|--7--7--7--7--7--7--7--7--------2--2--2--2--2--2---2-2-2-2----------------|
Ab|--7--7--7--7--7--7--7--7--------2--2--2--2--2--2---2-2-2-2----------------|
Eb|--5--5--5--5--5--5--5--5--------0--0--0--0--0--0---0-0-0-0----------------|
      every little thing         miss you more so I   running

   (x1)
eb|--------------------------------------------------------------------------|
Bb|--------------------------------------------------------------------------|
Gb|--4-4-4-4-4-4-4-4-4-4-4-4-4-4-4-4---7-7-7-7-7-7-7-7-7-7-7-7-7-7-7-7-------|
Db|--4-4-4-4-4-4-4-4-4-4-4-4-4-4-4-4---7-7-7-7-7-7-7-7-7-7-7-7-7-7-7-7-------|
Ab|--2-2-2-2-2-2-2-2-2-2-2-2-2-2-2-2---5-5-5-5-5-5-5-5-5-5-5-5-5-5-5-5-------|
Eb|--------------------------------------------------------------------------|
       It's like I've never been... of doing something stupid

   (x1)
eb|----------------------------------------------------------------------------|
Bb|----------------------------------------------------------------------------|
Gb|----------------------------------------------------------------------------|
Db|--7-7-7-7-7-7-7-7-7-7-7-7-7-7-7-7---2---2---2---2---2---2---2---2---2-------|
Ab|--7-7-7-7-7-7-7-7-7-7-7-7-7-7-7-7---2---2---2---2---2---2---2---2---2-------|
Eb|--5-5-5-5-5-5-5-5-5-5-5-5-5-5-5-5---0---0---0---0---0---0---0---0---0-------|
                                      P.M--------------------------------------|
        trying to make a getaway         And I've have gone a...

CHORUS ONE (0:41)

   (x2)
eb|--------------------------------------------------------------------------|
Bb|--------------------------------------------------------------------------|
Gb|----------------7-------------7-------------------------------------------|
Db|--2-2-2-4-4-4---7-------------7---7-7-7-7-7-7-7-7-7-7-7-7-7-7-7-7---------|
Ab|--2-2-2-4-4-4---5-------------5---7-7-7-7-7-7-7-7-7-7-7-7-7-7-7-7---------|
Eb|--0-0-0-2-2-2---------------------5-5-5-5-5-5-5-5-5-5-5-5-5-5-5-5---------|
  1   meet   you   in             your   head
  2  -night when   you're          in    bed

VERSE TWO (0:53)

   (x1)
eb|--------------------------------------------------------------------------|
Bb|QUICKLY ------------------------------------------------------------------|
Gb|--7-4-----------------7---------------------------------------------------|
Db|--7-4-----------------7------------------7--------------2-----------------|
Ab|--5-2-----------------5------------------7--------------2-----------------|
Eb|-----------------------------------------5--------------0-----------------|
           The one time  freezing outside   Pulled my      grabbed me up

   (x1)
eb|----------------------------------------------------------------------------|
Bb|----------------------------------------------------------------------------|
Gb|--4--4-4-4-4-4-4-4-4-4-4-4-4-4-4----7--7-7-7-7-7-7-7-7-7-7-7-7-7-7----------|
Db|--4--4-4-4-4-4-4-4-4-4-4-4-4-4-4----7--7-7-7-7-7-7-7-7-7-7-7-7-7-7----------|
Ab|--2--2-2-2-2-2-2-2-2-2-2-2-2-2-2----5--5-5-5-5-5-5-5-5-5-5-5-5-5-5----------|
Eb|----------------------------------------------------------------------------|
        P.M------------------------|      P.M----------------------------------|
     Went downstairs, saw your         Tried to say some things but

   (x1)
eb|----------------------------------------------------------------------------|
Bb|----------------------------------------------------------------------------|
Gb|----------------------------------------------------------------------------|
Db|--7-7-7-7-7-7-7-7-7-7-7-7-7-7-7-7---2---------------------------2-----------|
Ab|--7-7-7-7-7-7-7-7-7-7-7-7-7-7-7-7---2-----  HOLD  --------------2-----------|
Eb|--5-5-5-5-5-5-5-5-5-5-5-5-5-5-5-5---0---------------------------0-----------|
     P.M-----------------------------------------------------------------------|
      And I looked at you, you were    Sifting through the pages   Pictures

CHORUS TWO (1:16)

   (x4)
eb|--------------------------------------------------------------------------|
Bb|--------------------------------------------------------------------------|
Gb|----------------7-------------7-------------------------------------------|
Db|--2-2-2-4-4-4---7-------------7---7-7-7-7-7-7-7-7-7-7-7-7-7-7-7-7---------|
Ab|--2-2-2-4-4-4---5-------------5---7-7-7-7-7-7-7-7-7-7-7-7-7-7-7-7---------|
Eb|--0-0-0-2-2-2---------------------5-5-5-5-5-5-5-5-5-5-5-5-5-5-5-5---------|
  1   meet  you    in              your   head
  2  -night when   you're          in    bed (I know you're thinking)
  3  everything that I             all the shit that you go for
  4  kidding yourself now

BRIDGE (1:41)

   (x1)
eb|--------------------------|
Bb|-----------  UNSURE  -----|
Gb|--4--------6-\-4--4--6----|
Db|--4--------x-\-x--x-------|
Ab|--2--------4-\-2--2-------|
Eb|--------------------------|

   (x1)
eb|----------------------------------------------------------------------------|
Bb|----------------------------------------------------------------------------|
Gb|----------------------------------------------------------------------------|
Db|--7-7-------------7-7-------------x-x-7-7------------7-7-----7-7-7-7--------|
Ab|--7-7-------------7-7-------------x-x-7-7------------7-7-----7-7-7-7--------|
Eb|--5-5-------------5-5-------------x-x-5-5------------5-5-----5-5-5-5--------|
    P.M-|           P.M-|           P.M-----|           P.M--------------------|
         I hate you      I hate you          I hate you         picked up the phone!

FINAL CHORUS (2:04)

   (x3 - on 1st, 2nd, and 4th time)
eb|--------------------------------------------------------------------------|
Bb|--------------------------------------------------------------------------|
Gb|----------------7-------------7-------------------------------------------|
Db|--2-2-2-4-4-4---7-------------7---7-7-7-7-7-7-7-7-7-7-7-7-7-7-7-7---------|
Ab|--2-2-2-4-4-4---5-------------5---7-7-7-7-7-7-7-7-7-7-7-7-7-7-7-7---------|
Eb|--0-0-0-2-2-2---------------------5-5-5-5-5-5-5-5-5-5-5-5-5-5-5-5---------|
  1    meet  you   in              your   head
  2   -night when  you're          in    bed (I know you're thinking)
  4    kidding     now

   (x1 - on 3rd time)
eb|--------------------------------------------------------------------------|
Bb|--------------------------------------------------------------------------|
Gb|--------------7-7-7-7-7-7-7-7-7-7-----------------------------------------|
Db|--2-2-2-4-4-4-7-7-7-7-7-7-7-7-7-7--7-7-7-7-7-7-7-7-7-7-7-7-7-7-7-7--------|
Ab|--2-2-2-4-4-4-5-5-5-5-5-5-5-5-5-5--7-7-7-7-7-7-7-7-7-7-7-7-7-7-7-7--------|
Eb|--0-0-0-2-2-2----------------------5-5-5-5-5-5-5-5-5-5-5-5-5-5-5-5--------|
  3  everything that I                 all the shit that you go for

END ON (2:28)

   (x1)
eb|--------|
Bb|--------|
Gb|--7--4--|
Db|--7--4--|
Ab|--5--2--|
Eb|--------|



------------------------------------------------------------------------------
				XII. SIDEKICK
------------------------------------------------------------------------------

NOTE: "Sidekick" has a ton of effects and piano melodies that make it tough to
tab out a perfect version on the guitar. I've transcribed it out as best I could
for a stripped-down acoustic-y version.

As you'll see, the song revolves around two basic progressions
(relative to standard tuning - 1. E Maj, G#, A  and 2. E Major, B, A).
The power chord A sounds a little better for me, but you can play the
full open chord if you want.

Feel free to alternate the progressions if one doesn't sound right
to you or if it fits your voice better.

VERSE ONE (0:12)

   (x2)
eb|--------------------------------------------------------------------------|
Bb|--------------------------------------------------------------------------|
Gb|--1--1-1--1-1-1-------------------2--2-2--2-2-2--2--2-2--2-2-2------------|
Db|--2--2-2--2-2-2---6--6-6--6-6-6---2--2-2--2-2-2--2--2-2--2-2-2------------|
Ab|--2--2-2--2-2-2---6--6-6--6-6-6---0--0-0--0-0-0--0--0-0--0-0-0------------|
Eb|------------------4--4-4--4-4-4-------------------------------------------|
  1    Open your     eyes, kid  you  know I'm on your side, kid
  2    I'd like to save the world and you could be my sidekick

PRECHORUS / SILENT CHORUS (0:23)

   (x4 -- x2 with vocals + x2 with piano melody)
eb|--------------------------------------------------------------------------|
Bb|--------------------------------------------------------------------------|
Gb|--1--1-1--1-1-1---4--4-4--4-4-4---2--2-2--2-2-2--2--2-2--2-2-2------------|
Db|--2--2-2--2-2-2---4--4-4--4-4-4---2--2-2--2-2-2--2--2-2--2-2-2------------|
Ab|--2--2-2--2-2-2---2--2-2--2-2-2---0--0-0--0-0-0--0--0-0--0-0-0------------|
Eb|--------------------------------------------------------------------------|
  1      They'll all  say      our      names               As the
  2    words down    paper answer     yesterday's dreams

VERSE TWO (0:44)

   (x2)
eb|--------------------------------------------------------------------------|
Bb|--------------------------------------------------------------------------|
Gb|--1--1-1--1-1-1-------------------2--2-2--2-2-2--2--2-2--2-2-2------------|
Db|--2--2-2--2-2-2---6--6-6--6-6-6---2--2-2--2-2-2--2--2-2--2-2-2------------|
Ab|--2--2-2--2-2-2---6--6-6--6-6-6---0--0-0--0-0-0--0--0-0--0-0-0------------|
Eb|------------------4--4-4--4-4-4-------------------------------------------|
  1    I've lived a  lie , kid  I'd  love to run  and hide, kid
  2    You could... fuck 'em all and ditch the world like I did

PRECHORUS / CHORUS TWO (0:56)

   (x4)
eb|--------------------------------------------------------------------------|
Bb|--------------------------------------------------------------------------|
Gb|--1--1-1--1-1-1---4--4-4--4-4-4---2--2-2--2-2-2--2--2-2--2-2-2------------|
Db|--2--2-2--2-2-2---4--4-4--4-4-4---2--2-2--2-2-2--2--2-2--2-2-2------------|
Ab|--2--2-2--2-2-2---2--2-2--2-2-2---0--0-0--0-0-0--0--0-0--0-0-0------------|
Eb|--------------------------------------------------------------------------|
  1    They'll all  say      our      names               As the
  2    words down... paper answer     yesterday's dreams
  3    We              could          be                      un-
  4    touchable      Untouchable

SOLO (1:16)

   (x1)
eb|--------------------------------------------------------------------------|
Bb|--------------------------------------------------------------------------|
Gb|--9-9-9-8-----9-9-9-8---11---9-9-9-8-------9-9-9-8---11-------------------|
Db|----------9-----------9--------------9-6-----------9----------------------|
Ab|--------------------------------------------------------------------------|
Eb|--------------------------------------------------------------------------|

PRECHORUS TWO / CHORUS TWO (1:28)

    (x4)                             (Hit only the first A chord on 4th time)
eb|--------------------------------------------------------------------------|
Bb|--------------------------------------------------------------------------|
Gb|--1--1-1--1-1-1---4--4-4--4-4-4---2--2-2--2-2-2--2--2-2--2-2-2------------|
Db|--2--2-2--2-2-2---4--4-4--4-4-4---2--2-2--2-2-2--2--2-2--2-2-2------------|
Ab|--2--2-2--2-2-2---2--2-2--2-2-2---0--0-0--0-0-0--0--0-0--0-0-0------------|
Eb|--------------------------------------------------------------------------|
  1    They'll all  say      our      names               As the
  2    words down... paper answer     yesterday's dreams
  3    We              could          be                      un-
  4    touchable      Untouchable

BRIDGE (1:50)

    (x2)      You can improvise in this section, the piano melody dominates
eb|--------------------------------------------------|---------------------------|
Bb|--------------------------------------------------|---------------------------|
Gb|--1---1-----6-2---2-2---2-1---1-4---4-2---2-2---2-|-----------------2-2-2-2-2-|
Db|--2---2-6---6-2---2-2---2-2---2-4---4-2---2-2---2-|-----------------2-2-2-2-2-|
Ab|--2---2-6---4-0---0-0---0-2---2-2---2-0---0-0---0-|-----------------0-0-0-0-0-|
Eb|--------4-----------------------------------------|---------------------------|
                                                       We could be (x2)

FINAL CHORUS (2:16)

    (x8)
eb|--------------------------------------------------------------------------|
Bb|--------------------------------------------------------------------------|
Gb|--1--1-1--1-1-1---4--4-4--4-4-4---2--2-2--2-2-2--2--2-2--2-2-2------------|
Db|--2--2-2--2-2-2---4--4-4--4-4-4---2--2-2--2-2-2--2--2-2--2-2-2------------|
Ab|--2--2-2--2-2-2---2--2-2--2-2-2---0--0-0--0-0-0--0--0-0--0-0-0------------|
Eb|--------------------------------------------------------------------------|
  1    We              could          be
  2    We              could          be
  3    We              could          be                      un-
  4    touchable      Untouchable     Untouchable   Untouchable
  5    We              could          be
  6    We              could          be
  7    We              could          be                      un-
  8    touchable      Untouchable     Untouchable   Untouchable

AND END IT WITH A NICE BEAUTIFUL (2:59)

eb|--0-------------------------|
Bb|--0-------------------------|
Gb|--1-- OR AS MUCH OF THE ----|
Db|--2-- CHORD AS YOU WANT ----|
Ab|--2--      TO PLAY      ----|
Eb|--0-------------------------|
Tap to rate this tab
 
# A B C D E F G H I J K L M N O P Q R S T U V W X Y Z