Song name
# A B C D E F G H I J K L M N O P Q R S T U V W X Y Z

Man Overboard - Atlas tab

Man Overboard Ė ďAtlasĒ

E flat tuning (Half step down)

|--x-x-x-x-----|
|--x-x-x-x-----|
|--x-x-x-x-----|
|--x-x-x-x-----|
|--x-x-x-x-----|
|--x-x-x-x-----|

|--------------------|
|--------------------|
|--------------------|  x2
|--2----------7------|
|--2(x16)-----7(x16)-|
|--0----------5------|
PM *          *
  
|------------------------------|
|------------------------------|
|--6---------------------------|  x3
|--6(x8)-----7--------2--------|
|--4---------7(x8)----2(x16)---|
|------------5--------0--------|
PM *         *        *

|--------------------|
|--------------------|
|--------------------| 
|--7----------9------|
|--7(x8)------9(x8)--|
|--5----------7------|
PM *          *

|---------------------|
|---------------------|
|----9----------------|  
|----9----------------| keep strumming this chord
|----7----------------|
|----0----------------|

Guitar 1
|--------------------------------|
|--------------------------------|
|------------------------4-4-4-4-| x2
|--4-6-4-6-6-4-6-4-6-4-6---------|
|--------------------------------|
|--------------------------------|
Guitar 2
|--------------------|
|--------------------|
|--------------------|  x2
|--2----------7------|
|--2(x16)-----7(x16)-|
|--0----------5------|

Guitar 1
|------------------------------------------------------------|
|------------------------------------------------------------|
|--4-4-4-4-4-4-4-4-------------------------------------------|x3
|------------------4-4-4-2-2-2-2-2-2-4-4-4-6-6-6-6-6-6-6-----|
|------------------------------------------------------------|
|------------------------------------------------------------|
Guitar 2
|------------------------------|
|------------------------------|
|--6---------------------------|  x3
|--6(x8)-----7--------2--------|
|--4---------7(x8)----2(x16)---|
|------------5--------0--------|


Guitar 1
|------------------------------------------------------|
|----------------9-9-9---------------------------------|
|9-9-9-9-9-9-9-9-------11-11-11-11-11-11-11-9-11-11-11-|
|------------------------------------------------------|
|------------------------------------------------------|
|------------------------------------------------------|

|---------------------------|
|--9-9-9-9-9-12-12-12-12-12-|
|---------------------------|
|---------------------------|
|---------------------------|  x4
|---------------------------|
Guitar 2
|-----------------------------|
|-----------------------------|
|--2---------4----------------| x4
|--2(x8)-----4(x8)---2--------|
|--0---------2-------2(x16)---|
|--------------------0--------|


|---------------------|
|---------------------|
|----9----------------|  
|----9----------------| strum this chord 11 times and let ring
|----7----------------|
|----0----------------|


Thatís it! The leads arenít that accurate but it gives you the idea.
Tap to rate this tab
# A B C D E F G H I J K L M N O P Q R S T U V W X Y Z