Song name
# A B C D E F G H I J K L M N O P Q R S T U V W X Y Z

Man Overboard - Cry Baby tab

First tab!!! The only other tab of this song was a little more difficult fo me
since my fingers couldn't stretch over 5 frets... So here's an easier version :)

Tuning: Standard
Capo on 3
Relative to capo, Repeats through whole song.

e|-----------1---------------1-------------------1---------------1----------|
B|-------3-------3-------3-------3-----------3-------3-------3-------3------|
G|---3---------------3---------------3---2---------------2---------------2--|
D|--------------------------------------------------------------------------|
A|--------------------------------------------------------------------------|
E|--------------------------------------------------------------------------|

e|-----------1---------------1-----------|
B|-------3-------3-------3-------3-------|
G|---0---------------0---------------0---|
D|---------------------------------------|
A|---------------------------------------|
E|---------------------------------------|

e|-----------------------------------|
B|-----------------------------------|
G|-----------------------------------|
D|---3--3---5--5---3---7--3---8--3---|
A|-----------------------------------|
E|-----------------------------------|
Tap to rate this tab
# A B C D E F G H I J K L M N O P Q R S T U V W X Y Z