Song name
# A B C D E F G H I J K L M N O P Q R S T U V W X Y Z

Man Overboard - I Like You tab

I felt that the other I Like You tab wasn’t 100% correct so I wanted to make a little 
bit better one

This song is obviously a Half Step Down (Eb Ab Db Gb Bb eb)

Intro:

Drums for 2 measures (sounds like Dance, Dance except with a hi-hat)

Verse 1:

|----------------------------------------|
|----------------------------------------|
|-12-12----------12---------5-----5----7-|
|-12----12----------12--------5-----4--7-|  x2
|-10----------------------3-----2------5-|
|-------------12-------------------------|

Pre-Chorus:

|----------------------------------------------------------------------|
|----------------------------------------------------------------------|
|-------------------5555555555555555------------------7777777777777777-|
|-22222222222222222-5555555555555555-5555555555555555-7777777777777777-|
|-22222222222222222-3333333333333333-5555555555555555-5555555555555555-|
|-00000000000000000------------------3333333333333333------------------|
P.M................  ...............  ...............  ...............

|-----------------------------------------------------------|
|-----------------------------------------------------------|
|-------------------5555555555555555-------5*----7--7--7--7-|
|-22222222222222222-5555555555555555-5*----5*----7--7--7--7-|
|-22222222222222222-3333333333333333-5*----3*----5--5--5--5-|
|-00000000000000000------------------3*---------------------|
P.M................  ...............

Verse 2:

Bass for a measure, and then...

|----------------------------------------|
|----------------------------------------|
|-12-12----------12---------5-----5----7-|
|-12----12----------12--------5-----4--7-|
|-10----------------------3-----2------5-|
|-------------12-------------------------|

Pre-Chorus 2:

|----------------------------------------------------------------------|
|----------------------------------------------------------------------|
|-------------------5555555555555555------------------7777777777777777-|
|-22222222222222222-5555555555555555-5555555555555555-7777777777777777-|
|-22222222222222222-3333333333333333-5555555555555555-5555555555555555-|
|-00000000000000000------------------3333333333333333------------------|

|-----------------------------------------------------------|
|-----------------------------------------------------------|
|-------------------5555555555555555-------5*----7--7--7--7-|
|-22222222222222222-5555555555555555-5*----5*----7--7--7--7-|
|-22222222222222222-3333333333333333-5*----3*----5--5--5--5-|
|-00000000000000000------------------3*---------------------|

Chorus:

|---------------------------------------------------------------------|
|---------------------------------------------------------------------|
|------------------5555555555555555------------------7777777777777777-|
|-5555555555555555-5555555555555555-5555555555555555-7777777777777777-|
|-5555555555555555-3333333333333333-5555555555555555-5555555555555555-|
|-3333333333333333------------------3333333333333333------------------|

|---------------------------------------------------------------|
|---------------------------------------------------------------|
|------------------5555555555555555------------------7--7--7--7-|
|-2222222222222222-5555555555555555-5555555555555555-7--7--7--7-|  I Like You!!!
|-2222222222222222-3333333333333333-5555555555555555-5--5--5--5-|
|-0000000000000000------------------3333333333333333------------|

Solo:

|-----------------------------------------------------|
|-----------------------------------------------------|
|-----------------------------------------------------|
|-12-12-12-9-9h10p9-9--12-12-12-9-9-9-10--9--9h10p9-7-|
|-----------------------------------------------------|
|-----------------------------------------------------|

|-----------------------------7-8-7----7------10h7---10h7---10h7-|
|-----8/10-8-7------8/10-8-10-------10---10--------8------8------|
|---7-------------7----------------------------------------------|
|-9-------------9------------------------------------------------|
|----------------------------------------------------------------|
|----------------------------------------------------------------|

And the other guitar plays...

|----------------------------------------------------------------------|
|----------------------------------------------------------------------|
|-----------------------------------55555555-55555555-7777777777777777-|
|-5555555555555555-2222222222222222-55555555-44444444-7777777777777777-|  x2
|-5555555555555555-2222222222222222-33333333-22222222-5555555555555555-|
|-3333333333333333-0000000000000000------------------------------------|

Chorus:

|---------------------------------------------------------------------|
|---------------------------------------------------------------------|
|------------------5555555555555555------------------7777777777777777-|
|-5555555555555555-5555555555555555-5555555555555555-7777777777777777-|
|-5555555555555555-3333333333333333-5555555555555555-5555555555555555-|
|-3333333333333333------------------3333333333333333------------------|

|---------------------------------------------------------------|
|---------------------------------------------------------------|
|------------------5555555555555555------------------7--7--7--7-|
|-2222222222222222-5555555555555555-5555555555555555-7--7--7--7-|  I Like You!!!
|-2222222222222222-3333333333333333-5555555555555555-5--5--5--5-|
|-0000000000000000------------------3333333333333333------------|

End on G:

|---|
|---|
|---|
|-5-|
|-5-|
|-3-|
Tap to rate this tab
# A B C D E F G H I J K L M N O P Q R S T U V W X Y Z