Song name
# A B C D E F G H I J K L M N O P Q R S T U V W X Y Z

Man Overboard - White Lies tab

Artist: Man Overboard
Album: Heart Attack
Track: White Lies
Guitar 1: Half step down (D#G#C#F#A#D# OR EbAbDbGbBbeb)
Guitar 2: Half step down (D#G#C#F#A#D# OR EbAbDbGbBbeb)
NB: . means palm mute, * means harmonic

Guitar 1
Intro
eb|--------------------------------|
Bb|--------------------------------|
Gb|--------------------------------|
Db|-----------------5-5-5-4--------| x5
Ab|-2-2-2-5-2-2-2-5-3-3-3-2-5-5-5-7|
Eb|-0-0-0-3-0-0-0-3---------3-3-3-5|

eb|--------------------------------|
Bb|--------------------------------|
Gb|--------------------------------|
Db|-2------------------------------| 
Ab|-2------------------------------|
Eb|-0------------------------------|                                   

Verse 1
eb|--------------------------------|-3-3-3-3------------------------|
Bb|--------------------------------|-3-3-3-3------------------------|
Gb|--------------------------------|-0-0-0-0------------------------|
Db|-2------------------------------|--------------------------------|
Ab|-2------------------------------|--------------------------------|
Eb|-0------------------------------|--------------------------------|

eb|--------------------------------|-3-3-3-3------------------------|
Bb|--------------------------------|-3-3-3-3------------------------|
Gb|--------------------------------|-0-0-0-0------------------------|
Db|---2---2------------------------|--------------------------------|
Ab|---2---2------------------------|--------------------------------|
Eb|-0-0---0------------------------|--------------------------------|
    .
eb|--------------------------------|--------------------------------|
Bb|--------------------------------|---------------------------5*---|
Gb|--------------------------------|---------------5-------------5*-|
Db|-2-----------2-5----------------|-----7-----7---5---5-5-5--------|
Ab|-2---2-2-2-2-2-5---5-5-5-5-5-5-5|-7-7-7-7-7-7---3---3-3-3--------|
Eb|-0---0-0-0-0-0-3---3-3-3-3-3-3-3|-5-5-5-5-5-5--------------------|
        . . . .       . . . . . . .  . .   . .         . . .
eb|--------------------------------|--------------------------------|
Bb|--------------------------------|--------------------------------|
Gb|--------------------------------|-----5-----5--------------------|
Db|-2-----------2-5----------------|-5-5-5-5-5-5---7---7-7-7-7-7-7--|
Ab|-2---2-2-2-2-2-5---5-5-5-5-5-5-5|-3-3-3-3-3-3---7---7-7-7-7-7-7--|
Eb|-0---0-0-0-0-0-3---3-3-3-3-3-3-3|---------------5---5-5-5-5-5-5--|
        . . . .       . . . . . . .  . .   . .   
Pre-chorus      
eb|--------------------------------|--------------------------------|
Bb|--------------------------------|--------------------------------|
Gb|--------------------------------|-5-5-5-5-5-5-5-5-7-7-7-7-7-7-7-7|
Db|-2---2----(pickscrape)----------|-5-5-5-5-5-5-5-5-7-7-7-7-7-7-7-7|
Ab|-2---2--------------------------|-3-3-3-3-3-3-3-3-5-5-5-5-5-5-5-5|
Eb|-0---0--------------------------|--------------------------------|

eb|--------------------------------|--------------------------------|
Bb|--------------------------------|--------------------------------|
Gb|------------1212---7-7---9-9----|-5-5-5-5-5-5-5-5-7-7-7-7-7---7--|
Db|-2---2------x-x----x-x---x-x----|-5-5-5-5-5-5-5-5-7-7-7-7-7---7--|
Ab|-2---2------1010---9-9---7-7----|-3-3-3-3-3-3-3-3-5-5-5-5-5---5--|
Eb|-0---0--------------------------|--------------------------------|

Chorus
eb|--------------------------------|--------------------------------|
Bb|--------------------------------|--------------------------------|
Gb|-5-5-5-5-5-5-5-5----------------|-7-7-7-7-7-7-7-7-7-7-7-7-7-7-7-7|
Db|-5-5-5-5-5-5-5-5-2-2-2-2-2-2-2-2|-7-7-7-7-7-7-7-7-7-7-7-7-7-7-7-7| x2
Ab|-3-3-3-3-3-3-3-3-2-2-2-2-2-2-2-2|-5-5-5-5-5-5-5-5-5-5-5-5-5-5-5-5|
Eb|-----------------0-0-0-0-0-0-0-0|--------------------------------|

eb|--------------------------------|
Bb|--------------------------------|
Gb|-5-5-5-5-5-5-5-5-7--------------|
Db|-5-5-5-5-5-5-5-5-7--------------| 
Ab|-3-3-3-3-3-3-3-3-5--------------|
Eb|--------------------------------|

Post-chorus                                  
eb|--------------------------------|
Bb|--------------------------------|
Gb|--------------------------------|
Db|-----------------5-5-5-4--------| x2
Ab|-2-2-2-5-2-2-2-5-3-3-3-2-5-5-5-7|
Eb|-0-0-0-3-0-0-0-3---------3-3-3-5|

Verse 2
eb|--------------------------------|-3-3-3-3------------------------|
Bb|--------------------------------|-3-3-3-3------------------------|
Gb|--------------------------------|-0-0-0-0------------------------|
Db|-2------------------------------|--------------------------------|
Ab|-2------------------------------|--------------------------------|
Eb|-0------------------------------|--------------------------------|

eb|--------------------------------|-3-3-3-3------------------------|
Bb|--------------------------------|-3-3-3-3------------------------|
Gb|--------------------------------|-0-0-0-0------------------------|
Db|---2---2------------------------|--------------------------------|
Ab|---2---2------------------------|--------------------------------|
Eb|-0-0---0------------------------|--------------------------------|
    .
eb|--------------------------------|--------------------------------|
Bb|--------------------------------|---------------------------5*---|
Gb|--------------------------------|---------------5-------------5*-|
Db|-2-----------2-5----------------|-----7-----7---5---5-5-5--------|
Ab|-2---2-2-2-2-2-5---5-5-5-5-5-5-5|-7-7-7-7-7-7---3---3-3-3--------|
Eb|-0---0-0-0-0-0-3---3-3-3-3-3-3-3|-5-5-5-5-5-5--------------------|
        . . . .       . . . . . . .  . .   . .         . . .
eb|--------------------------------|--------------------------------|
Bb|--------------------------------|--------------------------------|
Gb|--------------------------------|-----5-----5--------------------|
Db|-2-----------2-5----------------|-5-5-5-5-5-5---7---7-7-7-7-7-7--|
Ab|-2---2-2-2-2-2-5---5-5-5-5-5-5-5|-3-3-3-3-3-3---7---7-7-7-7-7-7--|
Eb|-0---0-0-0-0-0-3---3-3-3-3-3-3-3|---------------5---5-5-5-5-5-5--|
        . . . .       . . . . . . .  . .   . .   
Pre-chorus      
eb|--------------------------------|--------------------------------|
Bb|--------------------------------|--------------------------------|
Gb|------------1212---7-7---9-9----|-5-5-5-5-5-5-5-5-7-7-7-7-7---7--|
Db|-2---2------x-x----x-x---x-x----|-5-5-5-5-5-5-5-5-7-7-7-7-7---7--|
Ab|-2---2------1010---9-9---7-7----|-3-3-3-3-3-3-3-3-5-5-5-5-5---5--|
Eb|-0---0--------------------------|--------------------------------|

Chorus
eb|--------------------------------|--------------------------------|
Bb|--------------------------------|--------------------------------|
Gb|-5-5-5-5-5-5-5-5----------------|-7-7-7-7-7-7-7-7-7-7-7-7-7-7-7-7|
Db|-5-5-5-5-5-5-5-5-2-2-2-2-2-2-2-2|-7-7-7-7-7-7-7-7-7-7-7-7-7-7-7-7| x2
Ab|-3-3-3-3-3-3-3-3-2-2-2-2-2-2-2-2|-5-5-5-5-5-5-5-5-5-5-5-5-5-5-5-5|
Eb|-----------------0-0-0-0-0-0-0-0|--------------------------------|

eb|--------------------------------|
Bb|--------------------------------|
Gb|-5-5-5-5-5-5-5-5-7-7-7-7-7-7-7-7|
Db|-5-5-5-5-5-5-5-5-7-7-7-7-7-7-7-7| 
Ab|-3-3-3-3-3-3-3-3-5-5-5-5-5-5-5-5|
Eb|--------------------------------|

Post-chorus
eb|--------------------------------|
Bb|--------------------------------|
Gb|--------------------------------|
Db|--------------------------------| 
Ab|--------------------------------|
Eb|--------------------------------|                                   
                                  
eb|--------------------------------|
Bb|--------------------------------|
Gb|--------------------------------|
Db|-----------------5-5-5-4--------| x4
Ab|-2-2-2-5-2-2-2-5-3-3-3-2-5-5-5-7|
Eb|-0-0-0-3-0-0-0-3---------3-3-3-5|

Bridge
eb|--------------------------------|--------------------------------|
Bb|--------------------------------|--------------------------------|
Gb|-5-5-5-5-5-5-5-5-7-7-7-7-7-7-7-7|--------------------------------|
Db|-5-5-5-5-5-5-5-5-7-7-7-7-7-7-7-7|-2-2-2-2-2-2-2-2-2-2-2-2-2-2-2-2|
Ab|-3-3-3-3-3-3-3-3-5-5-5-5-5-5-5-5|-2-2-2-2-2-2-2-2-2-2-2-2-2-2-2-2|
Eb|--------------------------------|-0-0-0-0-0-0-0-0-0-0-0-0-0-0-0-0|

eb|--------------------------------|
Bb|--------------------------------|
Gb|-5-5-5-5-5-5-5-5-7-7-7-7-7-7-7-7|
Db|-5-5-5-5-5-5-5-5-7-7-7-7-7-7-7-7| 
Ab|-3-3-3-3-3-3-3-3-5-5-5-5-5-5-5-5|
Eb|--------------------------------|

Last chorus
eb|--------------------------------|--------------------------------|
Bb|--------------------------------|--------------------------------|
Gb|-5-5-5-5-5-5-5-5----------------|-7-7-7-7-7-7-7-7-7-7-7-7-7-7-7-7|
Db|-5-5-5-5-5-5-5-5-2-2-2-2-2-2-2-2|-7-7-7-7-7-7-7-7-7-7-7-7-7-7-7-7| x5
Ab|-3-3-3-3-3-3-3-3-2-2-2-2-2-2-2-2|-5-5-5-5-5-5-5-5-5-5-5-5-5-5-5-5|
Eb|-----------------0-0-0-0-0-0-0-0|--------------------------------|

eb|--------------------------------|--------------------------------|
Bb|--------------------------------|--------------------------------|
Gb|-5-5-5-5-5-5-5-5----------------|-7------------------------------|
Db|-5-5-5-5-5-5-5-5-2-2-2-2-2-2-2-2|-7------------------------------|
Ab|-3-3-3-3-3-3-3-3-2-2-2-2-2-2-2-2|-5------------------------------|
Eb|-----------------0-0-0-0-0-0-0-0|--------------------------------|

Guitar 2
Intro
eb|--------------------------------|--------------------------------|
Bb|--------------------------------|--------------------------------|
Gb|--------------------------------|--------------------------------|
Db|--------------------------------|--------------------------------|
Ab|--------------------------------|--------------------------------|
Eb|--------------------------------|--------------------------------|

eb|--------------------------------|--------------------------------|
Bb|--------------------------------|--------------------------------|
Gb|-----------------------7-7-7----|-----------------------7-7-7----|
Db|-------9-9-9-----5-5-5----------|-------9-9-9-----5-5-5----------|
Ab|-7-7-7-------9-9-------------5-5|-7-7-7-------9-9-------------5-5|
Eb|--------------------------------|--------------------------------|

eb|--------------------------------|--------------------------------|
Bb|-8-8-8-7-7-7-3-3-5-5-5-3-3-3-0-0|-----10-8p7-8---7h8p7-----------|
Gb|-0-0-0-0-0-0-0-0-0-0-0-0-0-0-0-0|/7--------------------7--h--9---|
Db|--------------------------------|--------------------------------|
Ab|--------------------------------|--------------------------------|
Eb|--------------------------------|--------------------------------|

Verse 1
eb|--------------------------------|-3-3-3-3------------------------|
Bb|--------------------------------|-3-3-3-3------------------------|
Gb|--------------------------------|-0-0-0-0------------------------|
Db|--------------------------------|--------------------------------|
Ab|--------------------------------|--------------------------------|
Eb|--------------------------------|--------------------------------|

eb|--------------------------------|-3-3-3-3------------------------|
Bb|---5*---------------------------|-3-3-3-3------------------------|
Gb|-------5*-----------------------|-0-0-0-0------------------------|
Db|-----------5*-------------------|--------------------------------|
Ab|--------------------------------|--------------------------------|
Eb|--------------------------------|--------------------------------|

eb|--------------------------------|--------------------------------|
Bb|--------------------------------|--------------------------------|
Gb|-----------------4-4-4-4-4-4-4-4|-7-7-7-7-7-7-7-7-5-5-5-5-5-5-5-5|
Db|-5-5-5-5-5-5-5-5----------------|--------------------------------|
Ab|--------------------------------|--------------------------------|
Eb|--------------------------------|--------------------------------|

eb|--------------------------------|--------------------------------|
Bb|--------------------------------|-----------------5-5-5-5-5-5-5-5|
Gb|-----------------4-4-4-4-4-4-4-4|-7-7-7-7-7-7-7-7----------------|
Db|-5-5-5-5-5-5-5-5----------------|--------------------------------|
Ab|--------------------------------|--------------------------------|
Eb|--------------------------------|--------------------------------|

Pre-chorus      
eb|--------------------------------|--------------------------------|
Bb|--------------------------------|--------------------------------|
Gb|--------------------------------|-5-5-5-5-5-5-5-5-7-7-7-7-7-7-7-7|
Db|-2---2----(pickscrape)----------|-5-5-5-5-5-5-5-5-7-7-7-7-7-7-7-7|
Ab|-2---2--------------------------|-3-3-3-3-3-3-3-3-5-5-5-5-5-5-5-5|
Eb|-0---0--------------------------|--------------------------------|

eb|--------------------------------|--------------------------------|
Bb|--------------------------------|--------------------------------|
Gb|------------1212---7-7---9-9----|-5-5-5-5-5-5-5-5-7-7-7-7-7---7--|
Db|-2---2------x-x----x-x---x-x----|-5-5-5-5-5-5-5-5-7-7-7-7-7---7--|
Ab|-2---2------1010---9-9---7-7----|-3-3-3-3-3-3-3-3-5-5-5-5-5---5--|
Eb|-0---0--------------------------|--------------------------------|

Chorus
eb|---------------------------------|---------------------------------|
Bb|---------------------------------|---------------------------------|
Gb|-7-7-7-7-7-7-7-7/1212121212121212|-11111111111111111111111111141414|
Db|-x-x-x-x-x-x-x-x-x-x-x-x-x-x-x-x-|-x-x-x-x-x-x-x-x-x-x-x-x-x-x-x-x-|
Ab|-5-5-5-5-5-5-5-5/1010101010101010|-9-9-9-9-9-9-9-9-9-9-9-9-9-121212|
Eb|---------------------------------|---------------------------------|

eb|---------------------------------|---------------------------------|
Bb|---------------------------------|---------------------------------|
Gb|-7-7-7-7-7-7-7-7/1212121212121212|-11111111111111111111111111111111|
Db|-x-x-x-x-x-x-x-x-x-x-x-x-x-x-x-x-|-x-x-x-x-x-x-x-x-x-x-x-x-x-x-x-x-|
Ab|-5-5-5-5-5-5-5-5/1010101010101010|-9-9-9-9-9-9-9-9-9-9-9-9-9-9-9-9-|
Eb|---------------------------------|---------------------------------|
eb|--------------------------------|
Bb|--------------------------------|
Gb|-9-9-9-9-9-9-9-9-7--------------|
Db|-x-x-x-x-x-x-x-x-x--------------| 
Ab|-7-7-7-7-7-7-7-7-5--------------|
Eb|--------------------------------|

Post-chorus
eb|--------------------------------|--------------------------------|
Bb|--------------------------------|--------------------------------|
Gb|-----------------------7-7-7----|-----------------------7-7-7----|
Db|-------9-9-9-----5-5-5----------|-------9-9-9-----5-5-5----------|
Ab|-7-7-7-------9-9-------------5-5|-7-7-7-------9-9-------------5-5|
Eb|--------------------------------|--------------------------------|

Verse 2
eb|--------------------------------|-3-3-3-3------------------------|
Bb|--------------------------------|-3-3-3-3------------------------|
Gb|-9------------------------------|-0-0-0-0------------------------|
Db|-x------------------------------|--------------------------------|
Ab|-7------------------------------|--------------------------------|
Eb|--------------------------------|--------------------------------|

eb|--------------------------------|-3-3-3-3------------------------|
Bb|---5*---------------------------|-3-3-3-3------------------------|
Gb|-------5*-----------------------|-0-0-0-0------------------------|
Db|-----------5*-------------------|--------------------------------|
Ab|--------------------------------|--------------------------------|
Eb|--------------------------------|--------------------------------|

eb|--------------------------------|--------------------------------|
Bb|--------------------------------|--------------------------------|
Gb|-----------------4-4-4-4-4-4-4-4|-7-7-7-7-7-7-7-7-5-5-5-5-5-5-5-5|
Db|-5-5-5-5-5-5-5-5----------------|--------------------------------|
Ab|--------------------------------|--------------------------------|
Eb|--------------------------------|--------------------------------|

eb|--------------------------------|--------------------------------|
Bb|--------------------------------|-----------------5-5-5-5-5-5-5-5|
Gb|-----------------4-4-4-4-4-4-4-4|-7-7-7-7-7-7-7-7----------------|
Db|-5-5-5-5-5-5-5-5----------------|--------------------------------|
Ab|--------------------------------|--------------------------------|
Eb|--------------------------------|--------------------------------|

Pre-chorus      
eb|--------------------------------|--------------------------------|
Bb|--------------------------------|--------------------------------|
Gb|------------1212---7-7---9-9----|-5-5-5-5-5-5-5-5-7-7-7-7-7---7--|
Db|-2---2------x-x----x-x---x-x----|-5-5-5-5-5-5-5-5-7-7-7-7-7---7--|
Ab|-2---2------1010---9-9---7-7----|-3-3-3-3-3-3-3-3-5-5-5-5-5---5--|
Eb|-0---0--------------------------|--------------------------------|

Chorus
eb|---------------------------------|---------------------------------|
Bb|---------------------------------|---------------------------------|
Gb|-7-7-7-7-7-7-7-7/1212121212121212|-11111111111111111111111111141414|
Db|-x-x-x-x-x-x-x-x-x-x-x-x-x-x-x-x-|-x-x-x-x-x-x-x-x-x-x-x-x-x-x-x-x-|
Ab|-5-5-5-5-5-5-5-5/1010101010101010|-9-9-9-9-9-9-9-9-9-9-9-9-9-121212|
Eb|---------------------------------|---------------------------------|

eb|---------------------------------|---------------------------------|
Bb|---------------------------------|---------------------------------|
Gb|-7-7-7-7-7-7-7-7/1212121212121212|-11111111111111111111111111111111|
Db|-x-x-x-x-x-x-x-x-x-x-x-x-x-x-x-x-|-x-x-x-x-x-x-x-x-x-x-x-x-x-x-x-x-|
Ab|-5-5-5-5-5-5-5-5/1010101010101010|-9-9-9-9-9-9-9-9-9-9-9-9-9-9-9-9-|
Eb|---------------------------------|---------------------------------|
eb|--------------------------------|
Bb|--------------------------------|
Gb|-9-9-9-9-9-9-9-9-7-7-7-7-7-7-7-7|
Db|-x-x-x-x-x-x-x-x-x-x-x-x-x-x-x-x| 
Ab|-7-7-7-7-7-7-7-7-5-5-5-5-5-5-5-5|
Eb|--------------------------------|

Post-chorus
eb|--------------------------------|
Bb|--------------------------------|
Gb|--------------------------------|
Db|--------------------------------| 
Ab|--------------------------------|
Eb|--------------------------------|                                   

eb|--------------------------------|--------------------------------|
Bb|--------------------------------|--------------------------------|
Gb|-----------------------7-7-7----|-----------------------7-7-7----|
Db|-------9-9-9-----5-5-5----------|-------9-9-9-----5-5-5----------|
Ab|-7-7-7-------9-9-------------5-5|-7-7-7-------9-9-------------5-5|
Eb|--------------------------------|--------------------------------|

eb|--------------------------------|--------------------------------|
Bb|-8-8-8-7-7-7-3-3-5-5-5-3-3-3-0-0|-8-8-8-7-7-7-3-3-5-5-5-3-3-3-0-0|
Gb|-0-0-0-0-0-0-0-0-0-0-0-0-0-0-0-0|-0-0-0-0-0-0-0-0-0-0-0-0-0-0-0-0|
Db|--------------------------------|--------------------------------|
Ab|--------------------------------|--------------------------------|
Eb|--------------------------------|--------------------------------|

Bridge
eb|--------------------------------|--------------------------------|
Bb|-3------------------------------|--------------------------------|
Gb|---------------4----------------|------------2-------------------|
Db|------------------------------4-|h-5---------------------5-------|
Ab|--------------------------------|--------------------------------|
Eb|--------------------------------|--------------------------------|

eb|--------------------------------|
Bb|-3------------------------------|
Gb|---------------4----------------|
Db|--------------------------------| 
Ab|--------------------------------|
Eb|--------------------------------|                                   

Last chorus
eb|--------------------------------|-----------------------------1010|
Bb|-3-----10----8-8-3-----10----8-8|-3-----8-----10103-----8-----8-8-|
Gb|-0-0-0-0-0-0-0-0-0-0-0-0-0-0-0-0|-0-0-0-0-0-0-0-0-0-0-0-0-0-0-0-0-|
Db|--------------------------------|---------------------------------| x2
Ab|--------------------------------|---------------------------------|
Eb|--------------------------------|---------------------------------|
      . .   . .       . .   . .        . .   . .       . .   . .
eb|--------------------------------|-----------------------------1010|
Bb|-3-3-3-1010108-8-3-3-3-1010108-8|-3-3-3-8-8-8-10103-3-3-8-8-8-8-8-|
Gb|-0-0-0-0-0-0-0-0-0-0-0-0-0-0-0-0|-0-0-0-0-0-0-0-0-0-0-0-0-0-0-0-0-|
Db|--------------------------------|---------------------------------| x3
Ab|--------------------------------|---------------------------------|
Eb|--------------------------------|---------------------------------|

eb|--------------------------------|---------------------------------|
Bb|-3-3-3-1010108-8-3-3-3-1010108-8|-3-------------------------------|
Gb|-0-0-0-0-0-0-0-0-0-0-0-0-0-0-0-0|-0-------------------------------|
Db|--------------------------------|-0-------------------------------|
Ab|--------------------------------|---------------------------------|
Eb|--------------------------------|---------------------------------|
Tap to rate this tab
# A B C D E F G H I J K L M N O P Q R S T U V W X Y Z