Song name
# A B C D E F G H I J K L M N O P Q R S T U V W X Y Z

Man Overboard - Swan Dive tab

Artist - Man Overboard
Song - Swan Dive

Tuning: Half Step Down

Not terribly difficult to pick up. Let me know if you see any errors, enjoy the tab!

Intro:

E|----------------------------------------------------------------------------|
B|----------------------------------------------------------------------------|
G|----------------------------------------------------------------------------|
D|---9------------xxxx--------------------------------------------------------|
A|---9- x8 -------xxxx--------------------------------------------------------|
E|---7------------xxxx--------------------------------------------------------|

Verse:

E|----------------------------------------------------------------------------|
B|------------------------------------- Play x2 ------------------------------|
G|-----------7----------------------------------------------------------------|
D|---9---7---7- x16 ---5------------------------------------------------------|
A|---9---7---5---------5- x16 ------------------------------------------------|
E|---7---5-------------3------------------------------------------------------|

Pre-Chorus:

E|----------------------------------------------------------------------------|
B|----------------------------------------------------------------------------|
G|--------------------------------77--777--7----------------------------------|
D|--55--555--599--999--977--777--777--777--755--555--599--999--97-------------|
A|--55--555--599--999--977--777--755--555--555--555--599--999--97-------------|
E|--33--333--377--777--755--555--5----------33--333--377--777--75-------------|

Chorus:

E|----------------------------------------------------------------------------|
B|--------------------------------- After Second, Palm Mute: -----------------|
G|----------------------------------------------------------------------------|
D|--9--995--552--------------------------7------------------------------------|
A|--9--775--552- x2 ---------------------7- x8 -------------------------------|
E|--7--775--330--------------------------5------------------------------------|

E|----------------------------------------------------------------------------|
B|----------------------------------------------------------------------------|
G|----------------------------------------------------------------------------|
D|--9-------5-------2------7---------9-------5-------7------------------------|
A|--9- x8 --5- x8 --2- x8--7- x8 ----9- x8 --5- x8 --7- x16 ------------------|
E|--7-------3-------0------5---------7-------3-------5------------------------|

Verse:

E|----------------------------------------------------------------------------|
B|------------------------------------- Play x2 ------------------------------|
G|-----------7----------------------------------------------------------------|
D|---9---7---7- x16 ---5------------------------------------------------------|
A|---9---7---5---------5- x16 ------------------------------------------------|
E|---7---5-------------3------------------------------------------------------|

Pre-Chorus (palm muted):

E|----------------------------------------------------------------------------|
B|----------------------------------------------------------------------------|
G|----------------------------------------------------------------------------|
D|--55--555--555-555--599--999-977--777--755--555--555--555--57----7--9-------|
A|--55--555--555-555--599--999-977--777--755--555--555--555--57----7--9-------|
E|--33--333--333-333--377--777-755--555--533--333--333--333--37----5--7-------|

Chorus:

E|----------------------------------------------------------------------------|
B|--------------------------------- After Second, Palm Mute: -----------------|
G|----------------------------------------------------------------------------|
D|--9--995--552--------------------------7------------------------------------|
A|--9--775--552- x2 ---------------------7- x8 -------------------------------|
E|--7--775--330--------------------------5------------------------------------|

E|----------------------------------------------------------------------------|
B|----------------------------------------------------------------------------|
G|----------------------------------------------------------------------------|
D|--9-------5-------2------7---------9-------5-------7------------------------|
A|--9- x8 --5- x8 --2- x8--7- x8 ----9- x8 --5- x8 --7- x16 ------------------|
E|--7-------3-------0------5---------7-------3-------5------------------------|

Bridge:

E|----------------------------------------------------------------------------|
B|--------------------------------- Play x6 ----------------------------------|
G|----------------------------------------------------------------------------|
D|--999--555--777777----------------------------------------------------------|
A|--999--555--777777----------------------------------------------------------|
E|--777--333--555555----------------------------------------------------------|

I'm not sure exactly how many times that each chord of this part is played. Your best 
bet is to just feel it out and play what sounds right to you.


Chorus:

E|----------------------------------------------------------------------------|
B|--------------------------------- After Second, Palm Mute: -----------------|
G|----------------------------------------------------------------------------|
D|--9--995--552--------------------------7------------------------------------|
A|--9--775--552- x2 ---------------------7- x8 -------------------------------|
E|--7--775--330--------------------------5------------------------------------|

E|----------------------------------------------------------------------------|
B|----------------------------------------------- Play x2 --------------------|
G|----------------------------------------------------------------------------|
D|--9-------5-------2------7---------9-------5-------7------------------------|
A|--9- x8 --5- x8 --2- x8--7- x8 ----9- x8 --5- x8 --7- x16 ------------------|
E|--7-------3-------0------5---------7-------3-------5------------------------|

Outro Riff (Bridge Riff)

E|----------------------------------------------------------------------------|
B|-------------------- Play x3 ------------ On 4th Time-----------------------|
G|----------------------------------------------------------------------------|
D|--999--555--777777-----------------------9--5--7----------------------------|
A|--999--555--777777-----------------------9--5--7----------------------------|
E|--777--333--555555-----------------------7--3--5----------------------------|
Tap to rate this tab
# A B C D E F G H I J K L M N O P Q R S T U V W X Y Z