Song name
# A B C D E F G H I J K L M N O P Q R S T U V W X Y Z

Man Overboard - Fm Dial Style tab

Really easy power chords for a cool song.
+See the solo that's already been tabbed.


Verses:

eb|------------------------------------------|
Bb|------------------------------------------|
Gb|--77777777--------------------------------|
Db|--77777777--77777777--44444444--55555555--|
Ab|--55555555--77777777--44444444--55555555--|
Eb|------------55555555--22222222--33333333--|

eb|------------------------------------------|
Bb|------------------------------------------|
Gb|------------------------------------------|
Db|--99999999--44444444--55555555--77777777--|
Ab|--99999999--44444444--55555555--77777777--|
Eb|--77777777--22222222--33333333--55555555--|



Chorus:

eb|------------------------------------------|
Bb|------------------------------------------|
Gb|------------------------------------------|
Db|--55555555--77777777--44444444--55555555--|
Ab|--55555555--77777777--44444444--55555555--|
Eb|--33333333--55555555--22222222--33333333--|

>> For the chorus: Play this line twice open, then twice palm muted.
   I can't tell if it's palm muted or muted in the song but it sounds
   good either way.

>> The solo is tabbed perfectly in the other page attached to this song,
   refer to that.


Finish:

eb|-------------------------|
Bb|-------------------------|
Gb|--7-------------------7--|
Db|--7---7---4---9---5---7--|
Ab|--5---7---4---9---5---5--|
Eb|------5---2---7---3------|
Tap to rate this tab
# A B C D E F G H I J K L M N O P Q R S T U V W X Y Z