Man Raze - Turn It Up tab

      E      B      A
Eb |------|------|------|
Bb |------|------|------|
Gb |--9---|------|------|
Db |--9---|--9---|--7---|
Ab |--7---|--9---|--7---|
Eb |------|--7---|--5---|

OR:
      E      B      A
Eb |------|------|------|
Bb |------|------|------|
Gb |--9---|--4---|--2---|
Db |--9---|--4---|--2---|
Ab |--7---|--2---|--0---|
Eb |------|------|------|

struming: intro/chours: E- x3 B- x1 A- x1
             verses: E- x1 B- x1 A- x1 



havnt figured out high part yet. please comment if you do!


Tap to rate this tab
 
# A B C D E F G H I J K L M N O P Q R S T U V W X Y Z