Song name
# A B C D E F G H I J K L M N O P Q R S T U V W X Y Z

Mana - Clavado En Un Bar tab

Help us improve GuitareTab! Take a short survey!
SOLO

e-------7------9------11------7-----9-----11---12-12---14---12p11-----|
B--7-------7------7-------7------7-----7---------------------------14-|
G---------------------------------------------------------------------|
D---------------------------------------------------------------------|
A---------------------------------------------------------------------|
E---------------------------------------------------------------------|

e-----------------------|--------------------14--16---19-16--17-16-14-|
B-----------------------|------------14-16----------------------------|
G--15-16--13---15-16-13-|--13-15-16-----------------------------------|
D-----------------------|---------------------------------------------|
A-----------------------|---------------------------------------------|
E-----------------------|---------------------------------------------|

e--------------------------------------------------16-14---------16-14---|
B----17-16-14---------------------------------16b--------17-16b-------17-|
G-----------------16-15-13-13------13-13-11------------------------------|
D------------------------------16----------------------------------------|
A------------------------------------------------------------------------|
E------------------------------------------------------------------------|

e-----16-14---------16-14------------------------------------------|
B-16b--------17-16b---------17—14b--14-12--11--------------------|
G----------------------------------------------11---15-18-15-------|
D------------------------------------------------------------------|
A------------------------------------------------------------------|
E------------------------------------------------------------------|

e----------------------------------------------------|
B----------------------------------------------------|
G-16b--18-16-15-16b--18-16-15-16b--15-16---15-13-13v-|
D----------------------------------------------------|
A----------------------------------------------------|
B----------------------------------------------------|
Related for Clavado En Un Bar tab