Song name
# A B C D E F G H I J K L M N O P Q R S T U V W X Y Z

Mana - Muelle De San Blas tab

It's the same thing song...just make sure u listen for the
timing of the switches.

--------------12~------------------------------------|
--------11------------11-----------------------------|
-----10----10------10----10--------------------------|  4x's
-----------------------------------------------------|
--9--------------------------------------------------|
-----------------------------------------------------|

--------------9~-------------------------------------|
--------8-----------8--------------------------------|
-----7----7------7----7------------------------------|
---6-------------------------------------------------|  3x's
-----------------------------------------------------|
-----------------------------------------------------|

--------------2~--------------------------------------|
-------3-----------3----------------------------------|
-----2----2------2----2-------------------------------|
---0--------------------------------------------------|  2x's
------------------------------------------------------|
------------------------------------------------------|
Tap to rate this tab
# A B C D E F G H I J K L M N O P Q R S T U V W X Y Z