Song name
# A B C D E F G H I J K L M N O P Q R S T U V W X Y Z

Mana - Vivir Sin Aire tab

Help us improve GuitareTab! Take a short survey!
MANA      VIVIR SIN AIRE
La introducci?n y el espacio entre los versos van as?:

     G           Bm            C             D7
e---3-------5----2-----2-------0-----0--------2-----2-----|
B------3-----------3-----3-------1-----1--------1-----1---|
G--------4-----------4-----4-------0-----0--------2-----2-|
D---------------------------------------------0-----------|
A-----------5----2-------------3--------------------------|
E---3-----------------------------------------------------|


En las partes en que se canta va similar, solo cambia un poco el G:

  G              Bm            C
                                             D7
e-3------3-------2------2------0-----0--------2------2-----------------------
B----3-----3--------3-----3------1-----1--------1------1---------------------
G------4-----4--------4-----4------0-----0--------2------2-------------------
D---------------------------------------------0------------------------------
A----------------2-------------3---------------------------------------------
E-3--------------------------------------------------------------------------

Despues en los coros se rasguean estos acordes

Em C  D  G  y en de verso por medio Em C D

G           Bm  C    D7          G         Bm C D7

 Como quisiera       poder vivir sin aire

G          Bm   C    D7          G         Bm C D7
 Como quisiera       poder vivir sin agua

G          Bm   C    D7          G         Bm C D7
 Me encantaria       quererte un poco menos

G               C    D7          G         Bm C D7
 Como quisiera       poder vivir sin ti

Em         C    D               G
  Pero no puedo,     siento que muero

Em            C              D
  Me estoy ahogando sin tu amor

Em             C                 D    G
 Como quisiera poder vivir sin aire

Em             C                 D
 Como quisiera calmar mi afliccion

Em             C                 D    G
 Como quisiera poder vivir sin agua

Em             C             D
Me encantaria robar tu corazon


e-3------2----------------------
B---3---------------------------
G-----2-------------------------
D-------------------------------
A-------------------------------
E-------------------------------

Despues se vuelve a repetir el mismo patron


Como pudiera un pez nadar sin agua
Como pudiera un ave volar sin alas
Como pudiera la flor crecer sin tierra
Como quisera poder vivir sin ti

Pero no puedo, siento que muero
Me estoy ahogando sin tu amor

Como quisiera poder vivir sin aire
Como quisera calmar mi afliccion
Como quisiera poder vivir sin agua
Me encantaria robar tu corazon

Como quisera lanzarte al olvido
Como quiera guardarte en un cajon
Como quisiera borrarte de un soplido
Me encantaria matar esta cancion

====================================================
Related for Vivir Sin Aire tab