Song name
# A B C D E F G H I J K L M N O P Q R S T U V W X Y Z

Mana - Vendita La Luz tab

-------------------|----------------------|---------------------|
----3--------------|-----3----------------|-----3---------------|
--0---0------------|---2---2--------------|---0---0-------------|
-------------------|-0--------------------|---------------------|
-------------------|----------------------|---------------------|
3------------------|----------------------|-0-------------------|

-------------------|----------------------|---------------------|
----0-----3--------|-----3----------------|-----3---------------|
--0-----2---2------|---0---0--------------|---2---2-------------|
------0-------0----|----------------------|-0-------------------|
3------------------|----------------------|---------------------|
-------------------|-3--------------------|---------------------|

-------------------|----------------------|          
-----3-------------|-----0-----3----------|         
---0---0-----------|---0-----2---2--------|      |  X2  | <-------
-------------------|-------0-------0------|   
-------------------|-3--------------------|
-0-----------------|----------------------|

-------------------|----------------------|---------------------|
-----3-------------|-----3----------------|-----3---------------|
---0---0-----------|---2---2--------------|---0---0-------------|
-------------------|-0--------------------|---------------------|
-------------------|----------------------|---------------------|
-3-----------------|----------------------|-0-------------------|

0------------------|
-3------0-----3----|
--0---0-----2---2--|
----------0-------0|           |    X2  |  <------------
----3--------------|
-------------------|
Tap to rate this tab
 
# A B C D E F G H I J K L M N O P Q R S T U V W X Y Z