Song name
# A B C D E F G H I J K L M N O P Q R S T U V W X Y Z

Mana - El Espejo tab

So I tabbed this right off the DVD included with the new Mana album "Drama y Luz", so it 
should be very accurate.
Unfortunately, it doesnt show the guitarist play the entire song, so I had no luck 
tabbing the full version.
Enjoy!

Intro/Pre-Chorus

e|------------------------------------------------------------------------|
B|------------------------------------------------------------------------|
G|--4-4-4---7-7-7---9-9-9---7-7-7------4-4-4---7-7-7---9-9-9---7\0--------|
D|--4-4-4---7-7-7---9-9-9---7-7-7------4-4-4---7-7-7---9-9-9---7\0--------|
A|--2-2-2---5-5-5---7-7-7---5-5-5------2-2-2---5-5-5---7-7-7---5\0--------|
E|--3-3-3---6-6-6---8-8-8---0-0-0------3-3-3---6-6-6---8-8-8---0----------|


This is the guitar melody that plays in the first verse

e|------------------------------------------------------------------------|
B|--3---2-----3---2-----5---3-----2---3----*------------------------------|
G|---4---4-----4---4-----4---0-----0---0---*------------------------------|
D|----4---4-----2---2-----2---2-----2---2--*------------------------------|
A|------------------------------------------------------------------------|
E|------------------------------------------------------------------------|

*repeat
Tap to rate this tab
 
# A B C D E F G H I J K L M N O P Q R S T U V W X Y Z