Song name
# A B C D E F G H I J K L M N O P Q R S T U V W X Y Z

Mana - Contra Todo tab

Contra Todo (Intro)
MANA 2010 
Drama y Luz
p= pull off
hm= hammer on
bn= bend 
"s" o "/"= slide
Tab: por Axel Wazzap, 2011
Recomendacion: tocar la cancion con una plumilla Black Ice 1.10mm
Recomendation: play the song with a Black Ice pick 1.10mm

Intro de bateria.

Guitarra 1
e|---------------------------------------------------|
B|------9-----------------9--9-----------------------|
G|---------8--9----------------8---9-----------------|
D|------------------------------------9p7------------|
A|---------------------------------------------------|
E|---------------------------------------------------|

e|---------------------------------------------------|
B|---9------------------9------------9--9------------|
G|------9------------------8--9-----------8--9-------|
D|---------7--7--7--7--------------------------------|
A|---------------------------------------------------|
E|---------------------------------------------------|

e|---------------------------------------------------|
B|------------7--------------------------------------|
G|---------------9-----------------8--9---------9----|
D|--9p7--------------7----------9------------9-------|
A|---------------------------------------------------|
E|---------------------------------------------------|


Tab completo proximamente.
DRAMA Y LUZ, 2010
Tap to rate this tab
 
# A B C D E F G H I J K L M N O P Q R S T U V W X Y Z