Song name
# A B C D E F G H I J K L M N O P Q R S T U V W X Y Z

Mana - El Verdadero Amor Perdona tab

Hi Guys, this is my first tab. I have seen multiple versions of this song and most of 
them are wrong. Here are the tabs for the intro, the riffs and the chords. It's an easy 
song and fun to play. Enjoy!

If you have any corrections let me know.

Hola amigos, esta es mi primera tablatura. He visto varias versiones de esta cancion y 
muchas de ellas estan malas. Aqui estan las tablaturas para el intro y los riffs, y 
tambien los acordes. Es una cancion facil y muy entretenida. Disfrutenla!


Intro : Dm# - Am# - B -  F#

e|-----------------------------------------------------|
B|-----------------------------------------------------|
G|-3-----------------------------1-4-3---3-1h3p1---1-3-|
D|---1---1-3-4-3-----------4---4-------4---------4-----|
A|---------------1---1-2-4---2-------------------------|
E|-----------------------------------------------------|


Dm#               Am#            B                   F#
Tienes todos los espacios        inundados de tu ausencia
e|-------------------------------------------------------------------|
B|-------------------------------------------------------------------|
G|-----------------------------------------------------3-1h3p1---1-3-|
D|-------------------------------------------------------------4-----|
A|------------------------1-2-4--------------------------------------|
E|-------------------------------------------------------------------|

Dm#               Am#            B                       F#
inundados de silencio            no hay palabras, no hay perdon
e|-------------------------------------------------------------------|
B|-------------------------------------------------------------------|
G|-----------------------------------------------------3-1h3p1---1-3-|
D|-------------------------------------------------------------4-----|
A|------------------------1-2-4--------------------------------------|
E|-------------------------------------------------------------------|

Dm#              Am#            B                   F#
tu me tienes olvidado           no respondes al llamado
e|-------------------------------------------------------------------|
B|-------------------------------------------------------------------|
G|-----------------------------------------------------3-1h3p1---1-3-|
D|-------------------------------------------------------------4-----|
A|------------------------1-2-4--------------------------------------|
E|-------------------------------------------------------------------|

Dm#                      Am#                      B
no eches tierra a la palabra    me condenas a la nada
e|-------------------------------------------------------------------|
B|-------------------------------------------------------------------|
G|-------------------------------------------------------------------|
D|-------------------------------------------------------------------|
A|------------------------1-2-4--------------------------------------|
E|-------------------------------------------------------------------|
                     F#
no me entierres sin perdon
e|-------------------------------------------------------------------|
B|-------------------------------------------------------------------|
G|-------------------------------------------------------------------|
D|-------------------------------------------------------------------|
A|-------------------------------------------------------------------|
E|-------------------------------------------------------------------|

Dm#                     C#                        B
Mira corazón que es el engaño se revierte y hace daño
e|----6----------------------4----------------------2----------------|
B|----7----------------------6----------------------4----------------|
G|---8----------------------6------------------------4---------------|
D|--8----------------------6-----------------------4-----------------|
A|-6----------------------4-----------------------2------------------|
E|-------------------------------------------------------------------|
                   F#                    Am#
se revienta en el aire como pompas de jabon.
e|-------------------2--------------------1--------------------------|
B|-------------------2--------------------2--------------------------|
G|-------------------3--------------------3--------------------------|
D|------------------4---------------------3--------------------------|
A|-----------------4----------------------1--------------------------|
E|----------------2--------------------------------------------------|

Dm#                  Am#                  B
Como pude haberte yo herido engañarte y ofendido
e|----6----------------------4----------------------2----------------|
B|----7----------------------6----------------------4----------------|
G|---8----------------------6------------------------4---------------|
D|--8----------------------6-----------------------4-----------------|
A|-6----------------------4-----------------------2------------------|
E|-------------------------------------------------------------------|
                     F#                          Am#
alma gemela no te olvido aunque me arranque el corazón
e|-------------------2--------------------1--------------------------|
B|-------------------2--------------------2--------------------------|
G|-------------------3--------------------3--------------------------|
D|------------------4---------------------3--------------------------|
A|-----------------4----------------------1--------------------------|
E|----------------2--------------------------------------------------|

CORO:
Gm#            C#             F#             Am#
Haaay!!! el rencor que nos envenena nos hace daño
Gm#                  C#                 F#
aunque no regreses corazón has de perdonarme
                   B            Bm              F#
El verdadero amor perdona no abandona, no se quiebra
       Dm#         B                      C#
no aprisiona, no revienta como pompas de jabon

INTRO X 2
Dm#              Am#       B                      F#
Un error es algo humano      no justifico la traicion
Dm#             Am#                   B                          F#
los amantes verdaderos se comprenden, se aman y se olvidan del rencor
Dm#                   Am#       B                       F#
La noche empieza a amotinarse    de sueños rotos y el dolor
Dm#                  Am#                   B                   F#
y me revuelco en la cama aferrandome a la nada implorando tu perdon

Mira corazón cuanto te extraño pasan dias, pasan años
y  mi vida se revienta como pompas de jabon
Como pude haberte yo herido engañarte y ofendido
alma gemela no te olvido aunque me arranque el corazón

CORO

Dm# - Am# - B – F# x 4
El verdadero amor perdona(2)
Si el amor es verdadero no se quiebra, no abandona(2)
Tap to rate this tab
 
# A B C D E F G H I J K L M N O P Q R S T U V W X Y Z