Song name
# A B C D E F G H I J K L M N O P Q R S T U V W X Y Z

Mana - Mariposa Traicionera tab

Hola a todos...pues aqui les dejo esta exelente rola de mana aunque creo que tiene un 
de errores pero suena bien xD


intro

1------------------8--8--8------8----------------|
3--9---9---9---9---9--9--9--9---9--9---11--8-----|
3--10--10--10--10-----------10-----10--12--8-----|
4------------------------------------------------|
5------------------------------------------------|
6------------------------------------------------|

1-----------6--6--6------6-------------|
28-8-8-8----8--8--8---8--8--8--9---6---|
38-8-8-8--------------8-----8--10--6---|
4--------------------------------------|
5--------------------------------------|
6--------------------------------------|

1--------4----4---4--------------------------------*
2---2/6-----6---6--------9---8----6----------------*
3---------------------8----8---8-------5--5/8---5--*
4--------------------------------------------------*
5--------------------------------------------------*
6--------------------------------------------------*

1----------------------------------|
2----------------------------------|
3----------------------------------|
4---5h6---5------------------------|
5-------------8-----6------6/8-----|
6----------------------------------|

   Em                D                                   C
   Eres como una mariposa, vuelas y posas vas de boca en boca,
1. ---8---8----8---8--|-----6------6------6------6-----|----4---|
2. ---9---9----9---9--|-----8------8------8------8-----|----6---|
3. --10--10---10--10--|-----8------8------8------8-----|----6---|
4. --10--10---10--10--|-----8------8------8------8-----|----6---|
5. -------------------|--------------------------------|--------|
6. -------------------|--------------------------------|--------|
                                   G
    fácil y ligera de quien te provoca.
1. -----4-----4-----4------|---4---4---4---|------------|
2. -----6-----6-----6------|---4---4---4---|------------|
3. -----6-----6-----6------|---5---5---5---|------------|
4. -----6-----6-----6------|---6---6---6---|-/6-5-------|
5. ------------------------|---------------|------8-6-8-|
6. ------------------------|---------------|------------|


   Em                      D (riff 1)                         C
   Yo soy ratón de tu ratonera, trampa que no mata pero no libera,
1. ---8----8----8----8--|-----6------6------6------6-----|----4---|
2. ---9----9----9----9--|-----8------8------8------8-----|----6---|
3. --10---10---10---10--|-----8------8------8------8-----|----6---|
4. --10---10---10---10--|-----8------8------8------8-----|----6---|
5. ---------------------|--------------------------------|--------|
6. ---------------------|--------------------------------|--------|
                       G
   vivo muriendo prisionero.
1. ---4---4---4---|---4---4---4---|
2. ---6---6---6---|---4---4---4---|
3. ---6---6---6---|---5---5---5---|
4. ---6---6---6---|---6---6---6---|
5. ---------------|---------------|
6. ---------------|---------------|


*Puente:

    C   D          G  (riff2)        Em
   Mariposa traicionera, todo se lo lleva el viento,
1. -4-4--6--6--|-----4------4------|-----8-----8----|
2. -6-6--8--8--|-----5------5------|-----9-----9----|
3. -6-6--8--8--|-----6------6------|----10----10----|
4. -6-6--8--8--|-----6------6------|----10----10----|
5. ------------|-------------------|----------------|
6. ------------|-------------------|----------------|
    C   D         B7  (riff 3)
   Mariposa no regreso.
1. -4-4--6--6--|--3--3--|
2. -6-6--8--8--|--5--5--|
3. -6-6--8--8--|--5--5--|
4. -6-6--8--8--|--5--5--|
5. ------------|--------|
6. ------------|--------|


*Coro:

E
Ay, mariposa de amor, mi mariposa de amor,
                  B
ya no regreso contigo, (riff 4)
F#m (riff 5)                          B7
ay, mariposa de amor, mi mariposa de amor,
                     E
nunca jamas junto a ti, (riff 6)
                    E7
vuela amor, vuela dolor,
                    A
y no regreses a un lado, (riff 7)
                     E
ya vete de flor en flor, (riff 8)
     B7              E
seduciendo a los pistilos, (riff 9)
A                  E
y vuela cerca del sol,
          B7                E
pa’ que sientas lo que es dolor.


*Solo:


-1ra. Guitarra, Electroacústica (capo 5to. Traste):


1. ----------------|----------------------|---------------------------|
2. -10-10-10-11-13-|---9---9-8---9-8--8-6-|-----9--8--9-8---9-8---9-8-|
3. -10-10-10-12-14-|-5----10-8--10-8--8-6-|-6/8----8-10-8--10-8--10-8-|
4. ----------------|----------------------|---------------------------|
5. ----------------|----------------------|---------------------------|
6. ----------------|----------------------|---------------------------|

1. ---------------------------|--------------|------------|
2. ---6--6-8-6--8--9-8-6------|--------------|------------|
3. -6----6-8-6--8-10-8-6--8-5-|--------------|------------|
4. ----------------------10-6-|----------6-5-|-/6-5-------|
5. ---------------------------|----5-6-8-----|------8-6-8-|
6. ---------------------------|--8-----------|------------|

*Verso:

-2da. Guitarra, Electroacústíca (capo 1er. Traste):
-3ra. Guitarra, Eléctrica


   Em                    D                                      C
   Ay mujer, cómo haces daño, pasan los minutos cual si fueran años,
1. ---8----8----8---8--|---6-------6-------6-------6------|----4---|
2. ---9----9----9---9--|---8-------8-------8-------8------|----6---|
3. --10---10---10--10--|---8-------8-------8-------8------|----6---|
4. --10---10---10--10--|---8-------8-------8-------8------|----6---|
5. --------------------|----------------------------------|--------|
6. --------------------|----------------------------------|--------|
                                G  (riff 10)
   mira estos celos me están matando.
1. -----4-----4-----4----|---4---4---4---|------------|
2. -----6-----6-----6----|---4---4---4---|------------|
3. -----6-----6-----6----|---5---5---5---|------------|
4. -----6-----6-----6----|---6---6---6---|-/6-5-------|
5. ----------------------|---------------|------8-6-8-|
6. ----------------------|---------------|------------|

   Em                    D                                 C
   Ay mujer, que fácil eres, abres tus alitas muslos de colores,
1. ---8---8---8---8--|---6------6-------6------6------|----4---|
2. ---9---9---9---9--|---8------8-------8------8------|----6---|
3. --10--10--10--10--|---8------8-------8------8------|----6---|
4. --10--10--10--10--|---8------8-------8------8------|----6---|
5. ------------------|--------------------------------|--------|
6. ------------------|--------------------------------|--------|
                      G
   donde se posan tus sabores.
1. ---4---4---4----|---4---4---4---|
2. ---6---6---6----|---4---4---4---|
3. ---6---6---6----|---5---5---5---|
4. ---6---6---6----|---6---6---6---|
5. ----------------|---------------|
6. ----------------|---------------|


*Puente:


(riff 11)

    C   D          G                 Em           (riff 12)
   Mariposa traicionera, todo se lo lleva el viento,
1. -4-4--6--6--|-----4------4------|-----8-----8----|
2. -6-6--8--8--|-----5------5------|-----9-----9----|
3. -6-6--8--8--|-----6------6------|----10----10----|
4. -6-6--8--8--|-----6------6------|----10----10----|
5. ------------|-------------------|----------------|
6. ------------|-------------------|----------------|
    C   D         B7  (riff 13)
   Mariposa no regreso.
1. -4-4--6--6--|--3--3--|
2. -6-6--8--8--|--5--5--|
3. -6-6--8--8--|--5--5--|
4. -6-6--8--8--|--5--5--|
5. ------------|--------|
6. ------------|--------|


*Coro:

E
Ay, mariposa de amor, mi mariposa de amor,
                  B
ya no regreso contigo, (riff 4)
F#m (riff 5)                          B7
ay, mariposa de amor, mi mariposa de amor,
                     E
nunca jamas junto a ti, (riff 5)
                    E7
vuela amor, vuela dolor,
                         A
que tengas suerte en tu vida, (riff 14)
                     E
ay, ay, ay, ay, ay dolor,
 B7                  E
yo te lloré todo un río, (riff 8)
A                  E
ay, ay, ay, ay, ay amor,
 B7               E
tú te me vas a volar.


*Outro:


-1ra. Guitarra, Electroacústica (capo 5to. Traste):


1. ----------------|
2. -10-10-10-11-13-|
3. -10-10-10-12-14-|
4. ----------------|
5. ----------------|
6. ----------------|

1. ---------------------8-8-8----8--6---|-----------6-6-6----6--------|
2. ------9---9--9--9--9-9-9-9--9-9--8-8-|-8-8-8-8-8-8-8-8-8--8-8--9-6-|
3. ---------10-10-10-10-------10------8-|-8-8-8-8-8-------8----8-10-6-|
4. –8/10--------------------------------|-----------------------------|
5. -------------------------------------|-----------------------------|
6. -------------------------------------|-----------------------------|

1. --------------------------------|---------6---|------------|
2. -----9--9--9----9---8---6-------|---6-8-9---9-|------------|
3. -/10--10-10-10----8---6---6-8-5-|-8-----------|------------|
4. ------------------------------6-|-------------|-/6-5-------|
5. --------------------------------|-------------|------8-6-8-|
6. --------------------------------|-------------|------------|

*RIFFS:

-1ra. Guitarra, Electroacústica (capo 5to. Traste):


    riff                 riff                           riff
      1                    2                              3
1. -6-8-6-|----11-------11-----13-------13-|-------------------------|
2. -------|-13----13-13-----13----13-13----|-6-8--9--9/11--9------11-|
3. -------|--------------------------------|-6-8-10-10/12-10-10-12---|
4. -------|--------------------------------|-----------------11------|
5. -------|--------------------------------|-------------------------|
6. -------|--------------------------------|-------------------------|

        riff             riff        riff            riff
          4                5           6               7
1. ------------------|----------|-8--9-8--9-8-|-777h8-12-12/13-|
2. ------------------|-8/9—8h11-|-9-11-9-11-9-|----------------|
3. -9-12-12-10-10/12-|-0--------|-------------|----------------|
4. ------------------|-0--------|-------------|----------------|
5. ------------------|----------|-------------|----------------|
6. ------------------|----------|-------------|----------------|

            riff                   riff                riff
              8                      9                  10
1. ----------------10-13-12-|-----------------|-------------------|
2. -10-10-10h11-10-11-15-13-|-----------------|-----13----11----9-|
3. -------------------------|---8-6---------5-|-/10----/8----/6---|
4. -------------------------|-8-----8\7-6-8---|-------------------|
5. -------------------------|-----------------|-------------------|
6. -------------------------|-----------------|-------------------|

           riff               riff               riff
            11                 12                 13
1. ---------------------|--------------|---------8--9-10---13-|
2. -----13-----14----16-|-8-11-8-6-6-6-|-8--9-11-9-11-12-14---|
3. –/10----/12----/13---|-8-12-8-6-6-6-|-8-10-12--------------|
4. ---------------------|--------------|----------------------|
5. ---------------------|--------------|----------------------|
6. ---------------------|--------------|----------------------|
                           riff
                            14
1. ---------------7-11111111101010----------------1111---|
2. ---------6-7-9-----------------1313131313111111----11-|
3. -----7-9----------------------------------------------|
4. -9-9--------------------------------------------------|
5. ------------------------------------------------------|
6. ------------------------------------------------------|

Dudas o comentarios escribanme: cartablanca_evitaelexeso@hotmail.com
Tap to rate this tab
# A B C D E F G H I J K L M N O P Q R S T U V W X Y Z