Song name
# A B C D E F G H I J K L M N O P Q R S T U V W X Y Z

Mana - Falta Amor Introsolo tab

Help us improve GuitareTab! Take a short survey!
Mana - Falta amor



Intro/Verse


e|---------------------------------|-----------------------------|
B|---------------------------------|-----------------------------|
G|---------------------------------|-----------------------------|
D|----------------------2-2--------|---------------2-2-----------|
A|--4---4-----2-2-4---4-----2h4-4~-|-----2-2-4---4-----2h4-4~----|
E|--------4-4----------------------|-4-4-------------------------|


Solo

1:56

e|--14b16-14~-12~-11--------------------12-----|
B|-------------------14-12-14~-12-12-12----14~-|
G|---------------------------------------------|
D|---------------------------------------------|
A|---------------------------------------------|
E|---------------------------------------------|



e|--9h11b12~-9----9---9h11b12~-9----9--|--12-9-----------------------|
B|-------------12----------------12----|-------12-9-7-9--------------|
G|-------------------------------------|----------------9~-6-4-6~----|
D|-------------------------------------|-----------------------------|
A|-------------------------------------|-----------------------------|
E|-------------------------------------|-----------------------------|


For corrections and whatever my e-mail is amiramwhite@msn.com (thats my msn messenger address too) 

and enjoy
Related for Falta Amor Introsolo tab