Song name
# A B C D E F G H I J K L M N O P Q R S T U V W X Y Z

Mana - El Muelle De San Blas tab

EL MUELLE DE SAN BLAS GUITAR TAB  by:MANA

e----------7------------|
B----5---5---5---5------|
G------8-------8--------|
D-----------------------|
A-----------------------|
E--0--------------------|

e-------------5--------------|
B----2--5--2-----2--5--2-----|
G----------------------------|
D----------------------------|
A--0-------------------------|
E----------------------------|


e------------5---------------|
B----3--5--3---3--5--3-------|
G----------------------------|
D--0-------------------------|
A----------------------------|
E----------------------------|


e------------3---2-----------|
B----0--3--0---0---3---------|
G----------------------------|
D----------------------------|
A--2-------------------------|
E----------------------------|

(Just Repeat this thruoghout the song)

(untill you get to this part...)

Sola, Sola en...
e-----------1---------------------|
B---0--3--0-----------------------|
G---------------------------------|
D---------------------------------|
A---------------------------------|
E---------------------------------|
(Repeat this as many time as needed)
Tap to rate this tab
# A B C D E F G H I J K L M N O P Q R S T U V W X Y Z