Song name
# A B C D E F G H I J K L M N O P Q R S T U V W X Y Z

Mana - Ojala Y Pudiera Borrarte tab

Canción: Ojala pudiera borrarte
Banda: Maná
Disco: Amar es combatir
Año: 2007
Autor: Fer olvera
Transcribida por: Oscar Moreno
Afinación: Estándar


Nota:la guitarra 1 hace solo los acordes de acompañamiento mientras la guitarra 2 haces los riffs

Riff 1 (Gtr 2)intro                Riff 2 (Gtr 2)versos
                             
E|----3------------2-----------|  |---------------------------|
B|----3------------3-----------|  |---------------------------|
G|----x------------x-----------|  |---------------------------|
D|----5------------4-----------|X5|---5-------7---------------|
A|-----------------------------|  |---7-------5---------------|
E|-----------------------------|  |---------------------------|

                  (riff 2)
G     G7            C
   Ojalá y te me borraras de mis sueños
                  (riff 1)
D                  G     G7
  Y poder desdibujarte
                  (riff 2)
G     G7              C 
   Ojalá y pudiera ahogarte en un charco
                  (riff 1)
  D                G    G7
Lleno de rosas y amor
                  (riff 2)
G     G7             C
   Ojalá y se me olvidara hasta tu nombre
                  (riff 1)
D                       G   G7
   Ahogarlo dentro del mar
                  (riff 2)
G     G7             C
   Ojalá y que tu sonrisa de verano
 D                G   G7
Se pudiera ya borrar


 riff 3 (Gtr 2)
E|-----3---|-----2----|-----0----|----------|---0----|
B|-------0-|-------0--|-------0--|---5--4---|-----3--|
G|---4-----|---4------|---0------|---5--5---|-2------|
D|-5-------|-4--------|-2--------|----------|--------|
A|---------|----------|----------|----------|--------|
E|---------|----------|----------|-3--------|--------|

E|-----3---|-----2----|----0----|--3---|--5---|
B|-------0-|-------0--|------3--|--5---|--3---|
G|---4-----|---4------|-2-------|--4---|--4---|
D|-5-------|-4--------|---------|--2---|--5---|
A|---------|----------|---------|------|------|
E|---------|----------|---------|------|------|

 (riff 3)
  Em    D   C
Vuelve corazón
         G                Bm
Uh uh uh uh, vuelve a mi lado
  Em    D   C
Vuelve corazón
     Em                   Bm
No vuelve, no vuelve, no vuelve, no

riff 4
E|------|------|------|---------|-----|-----|----|------------|
B|------|------|------|---------|-----|-----|----|------------|
G|------|------|------|---------|-----|-----|----|------------|
D|---5--|------|---4--|---2-4-5-|---5-|-----|---4|---2-4-5-4-2|
A|-3----|----5-|-2----|-2-------|-3---|---5-|-2--|-2----------|
E|------|-3----|------|---------|-----|-3---|----|------------|

E|------|-----|-----|-----|-----|
B|------|-----|-----|-----|-----|
G|------|-----|-----|-----|-----|
D|---5--|-----|---4-|---5-|---7-|
A|-3----|---5-|-2---|-3---|-5---|
E|------|-3---|-----|-----|-----|

C                    G                     Bm
Ojalá y te me borraras para siempre de mi vida
                    Em
Para no volverte a ver
C                      G                          Bm
   Y ojalá y te me borraras por las noches en el día
                    Em
Para no volverte a ver
C                       G                         Bm
   Y ojalá y te me esfumaras de mis sueños, vida mía
                    C
Para no volverte a ver

D          G
No, ni en sueños

solo
    G              C            D          G
E|------------------------------------------------------------------|
B|----------------3-3-3/5-------------------------------------------|
G|---------4-5-----------------------2-4-5--5-----4-2-4-------------|
D|-4/5-----------------------5/4----------------------------0-------|
A|------------------------------------------------------------------|
E|------------------------------------------------------------------|
    G               C        D                  G
E|------------------------------------5--5-----------------|
B|------------------8------------------------8-7-8---------|
G|--2/4---4--4--7-7---4-5----5/7---------------------------|
D|-------5--5----------------------------------------------|
A|---------------------------------------------------------|
E|---------------------------------------------------------|


 riff 5
E|-10-----------|-------7---|--7------3--|------------|
B|------8-------|-------8---|------------|---------8--|
G|----------5---|-7---------|------4--5--|-7----------|
D|--------------|-7---------|--5---------|-----7---9--|
A|--------------|----7------|------------|------------|
E|--------------|-----------|------------|------------|

(riff5)

Como puedo yo borrar tus besos vida
G      G     G7M          C
Están tatuados en mi piel
    D                     G                             G
Quiero de una vez por todas, ya largarte
            G7M
Y borrarte de mi ser

(riff 2)        
G      G     G7M          C
 Ojalá y la lluvia me ahogue entre sus brazos
                     (riff 1)
D                     G     G     G7M
 Para no pensar en ti
          (riff 2)
G      G     G7M    C
 O que pase un milagro o pase algo,
  D                 G     G     G7M
Que me lleve hasta ti

 (riff 3)
  Em    D   C
Vuelve corazón
         G                Bm
Uh uh uh uh, vuelve a mi lado
      Em              D         C
Pero no, no, no, no Vuelve corazón
     Em                   Bm
No vuelve, no vuelve, no vuelve, no


  (riff 4)
C                    G                        Bm
   Ojalá y te me borraras para siempre de mi vida
                    Em
Para no volverte a ver
C                      G                          Bm
   Y ojalá y te me borraras por las noches en el día
                    Em
Para no volverte a ver
C                       G                         Bm
   Y ojalá y te me esfumaras de mis sueños, vida mía
                     Em
Y que no me lluevas más
C                     G                          Bm
   Y ojalá y que la lluvia me ahogue entre sus brazos
                    C
Para no volverte a ver
 D          Em
No, ni en sueños
C                      D
  Pa' que pares de llover

  G    Am     C D
Sueños,
  G    Am     C D
sueños,
  G    Am     C D
oh oh sueños

Epero que les aya ayudado en algo
bueno dudas mi correo es okar_yo@hotmail.com
eso es todo mas que le mando saludos 
amis amigos frank angie carina lix tania
Tap to rate this tab
# A B C D E F G H I J K L M N O P Q R S T U V W X Y Z