Guitaretab - guitar tabs
Song name
# A B C D E F G H I J K L M N O P Q R S T U V W X Y Z
Home / M / Mana / Mis Ojos tab

Mana - Mis Ojos tab

Pues mas que corregida, yo describiria este tab mas completo que el anterior,
tiene los arreglos de la guitarra acustica y algunos de la electrica,
asi que espero que lo disfruten:


*INTRO:


   Toca esto tres veces.... luego esto a la cuarta vez
1. -----0----------0-1-----|-----0----------0-1------|
2. ---1---1------3-------0-|---1---1------3-------0--|
3. -0-------0--0-------0---|-2-------2--0-------0----|
4. ------------------------|-------------------------|
5. ------------------------|-------------------------|
6. ------------------------|-------------------------|


            C                  Am
Gracias a Dios,     que me dio mis ojos,
1. ---------0--0-0-------------------0--0-0-----|
2. ---------1--1-1-------------------1--1-1-----|
3. ---------0--0-0-------------------2--2-2-----|
4. ---------2--2-2-------------------2--2-2-----|
5. ---------3--3-3-------------------0--0-0-----|
6. ---------0--0-0------------------------------|
            F         G                      C
que me dio mi boca,     que me dio toda mi piel.
1. ------------1-1--1-1---------------3---------|--------------|
2. ------------1-1--1-1---------------0---------|-8-8\6-6-6\5--|
3. ------------2-2--2-2---------------0---------|-9-9\7-7-7\5--|
4. ------------3-3--3-3---------------0---------|--------------|
5. ------------3-3--3-3---------------2---------|--------------|
6. ------------1-1--1-1---------------3---------|--------------|

 G          C                       Am
Tengo dos piernas,    para recorrer el mundo,
1. ------------0--0-0--------------------0--0-0--|
2. ------------1--1-1--------------------1--1-1--|
3. ------------0--0-0--------------------2--2-2--|
4. ------------2--2-2--------------------2--2-2--|
5. ------------3--3-3--------------------0--0-0--|
6. ------------0--0-0----------------------------|
               F             G                   C
por los mares mas profundos,  para llegar hasta ti.
1. ------------1-1------1-1--3-------------0---|
2. ------------1-1------1-1--0-------------1---|
3. ------------2-2------2-2--0-------------0---|
4. ------------3-3------3-3--0-------------2---|
5. ------------3-3------3-3--2-------------3---|
6. ------------1-1------1-1-3-------------0---|

Am G F G

  G          C                  Am
Gracias al cielo,   no olvido ponerme nada,
1. ----------------0-0-0-0-1-0-0-0-0-0-0-0-0-1-1-0-0-0--|
2. ----------------1-1-1-1-1-1-1-1-1-1-1-1-1-1-1-1-1-1--|
3. ----------------0-0-0-0-2-0-0-2-2-2-2-2-2-2-2-2-2-2--|
4. -----5-7p5------2-2-2-2-3-2-2-2-2-2-2-2-2-3-3-2-2-2--|
5. 5/7-------7-5--3-3-3-3---3-3-0-0-0-0-0-0-----0-0-0--|
6. ----------------0-0-0-0---0-0------------------------|
                   F          G               C      
tengo pies, tengo mi espalda, y tambien mi corazon.
1. -1-1-1-1-1-0-0-1-1-1-1--1--3-3-3-3--3-3-3--0-0-0--|---1---0--|
2. -1-1-1-1-1-1-1-1-1-1-1--1--3-3-3-3--3-3-3--1-1-1--|---1---1--|
3. -2-2-2-2-2-0-0-2-2-2-2--2--4-4-4-4--4-4-4--0-0-0--|---2---0--|
4. -3-3-3-3-3-2-2-3-3-3-3--3--5-5-5-5--5-5-5--2-2-2--|-5-3-5-2--|
5. -3-3-3-3-3-3-3-3-3-3-3--3--5-5-5-5--5-5-5--3-3-3--|---3---3--|
6. -1-1-1-1-1-0-0-1-1-1-1--1--3-3-3-3--3-3-3--0-0-0--|---1---0--|

 G           C                    Am
Tengo dos manos,   para recorrer tus muslos,
1. ----------------0-0-0-0-1-0-0-0-0-0-0-0-0-1-1-0-0-0--|
2. ----------------1-1-1-1-1-1-1-1-1-1-1-1-1-1-1-1-1-1--|
3. ----------------0-0-0-0-2-0-0-2-2-2-2-2-2-2-2-2-2-2--|
4. -----5-7p5------2-2-2-2-3-2-2-2-2-2-2-2-2-3-3-2-2-2--|
5. 5/7-------7-5--3-3-3-3---3-3-0-0-0-0-0-0-----0-0-0--|
6. ----------------0-0-0-0---0-0------------------------|
              F               G                 C
tus colinas, tu cintura,      para tocarte la piel.
1. -1-1-1-1-1-0-0-1-1-1-1--1--3-3-3-3--3-3-3--0-0-0--|-------0------|
2. -1-1-1-1-1-1-1-1-1-1-1--1--3-3-3-3--3-3-3--1-1-1--|-1---------1--|
3. -2-2-2-2-2-0-0-2-2-2-2--2--4-4-4-4--4-4-4--0-0-0--|---2-4---2----|
4. -3-3-3-3-3-2-2-3-3-3-3--3--5-5-5-5--5-5-5--2-2-2--|--------------|
5. -3-3-3-3-3-3-3-3-3-3-3--3--5-5-5-5--5-5-5--3-3-3--|--------------|
6. -1-1-1-1-1-0-0-1-1-1-1--1--3-3-3-3--3-3-3--0-0-0--|--------------|

*PRECORO:

 Am                Em      F                         G
Soledad me estas matando, me duele la piel por no tocarte,
 Am                     Em      F
regresa que me estoy muriendo, de que me sirven mis ojos,
 G               C
si no te pueden ver.


*CORO:

[ Tab from: http://www.guitaretab.com/m/mana/81796.html ]
             Am                 F         G                  C
No te pueden ver, no te pueden ver (mis ojos), no te pueden ver,
1. --x--x--x--x--x--x--x--x--x--x--x--x--x--x--x--x--x--x--x--x--x--|
2. -13-13-13-13-13-13-13-13-13-13-13-13-13-13-13-13-13-13-13-13-13--|
3. -12-12-12-12-12-12-12-12-12-12-12-12-12-12-12-12-12-12-12-12-12--|
4. -12-12-12-12-12-12-12-12-12-12-12-12-12-12-12-12-12-12-12-12-12--|
5. --x--x--x--x--x--x--x--x--x--x--x--x--x--x--x--x--x--x--x--x--x--|
6. -----------------------------------------------------------------|
             Am                 F         G                 Am
no te pueden ver, no te pueden ver (mis ojos), no te pueden ver, 
1. --x--x--x--x--x--x--x--x--x--x--x--x--x--x--x--x--x--x--x--x--x--|
2. -13-13-13-13-13-13-13-13-13-13-13-13-13-13-13-13-13-13-13-13-13--|
3. -12-12-12-12-12-12-12-12-12-12-12-12-12-12-12-12-12-12-12-12-12--|
4. -12-12-12-12-12-12-12-12-12-12-12-12-12-12-12-12-12-12-12-12-12--|
5. --x--x--x--x--x--x--x--x--x--x--x--x--x--x--x--x--x--x--x--x--x--|
6. -----------------------------------------------------------------|
          G                Am                      G
ay! mis ojos, no te pueden ver!!! No no no no no noouoo!!!
 F        G   C
no te pueden ver!!!
1. -0-0-3-3-0-0-3-1--|
2. -1-1-0-0-1-1-0-1--|
3. -2-2-0-0-2-2-0-2--|
4. -2-2-0-0-2-2-0-3--|
5. -0-0-2-2-0-0-2-3--|
6. -----3-3-----3-1--|

*SOLO:


   c/distorcion:
1. ---------------------------------------------------|
2. ---------------------------------------------------|
3. ---------------------------------------5-7-5---7b--|
4. -----5----------------5--------------5-------7-----|
5. 5/7---7p5-3--5-3-5/7----3-3-5p3-5/7---------------|
6. ---------------------------------------------------|

1. ------------------------------------------------------|
2. ----5-10-8--------------------------------------------|
3. 7b--------7-5-7p5------------5-7b-7----5---7-5-7b-5--|
4. -------------------7--5-5-5h7---------5---5-----------|
5. ------------------------------------------------------|
6. ------------------------------------------------------|

1. -----------------|
2. -----------------|
3. 2br0------------|
4. -----------------|
5. -------5br32/3--|
6. -----------------|


 G          C                          Am
Tengo dos ojos,      los que ven el universo,
1. ---------0--0-0----------------------0--0-0--|
2. ---------1--1-1----------------------1--1-1--|
3. ---------0--0-0----------------------2--2-2--|
4. ---------2--2-2----------------------2--2-2--|
5. ---------3--3-3----------------------0--0-0--|
6. ---------0--0-0------------------------------|
                       F          G                 C
los que lloran por tu ausencia,   y te buscan sin parar.
1. --------------------1-1---1-1--3-----------------0--|-0-----0-0-----0--|
2. --------------------1-1---1-1--0-----------------1--|-----1-------1----|
3. --------------------2-2---2-2--0-----------------0--|---2-------0------|
4. --------------------3-3---3-3--0-----------------2--|------------------|
5. --------------------3-3---3-3--2-----------------3--|------------------|
6. --------------------1-1---1-1-3-----------------0--|------------------|


Am                Em      F                         G
Soledad me estas matando, me duele la piel por no tocarte,
 Am                     Em      F
regresa que me estoy muriendo, de que me sirven mis ojos,
 G               C
si no te pueden ver.


             Am                 F         G                  C
No te pueden ver, no te pueden ver (mis ojos), no te pueden ver,
1. --x--x--x--x--x--x--x--x--x--x--x--x--x--x--x--x--x--x--x--x--x--|
2. -13-13-13-13-13-13-13-13-13-13-13-13-13-13-13-13-13-13-13-13-13--|
3. -12-12-12-12-12-12-12-12-12-12-12-12-12-12-12-12-12-12-12-12-12--|
4. -12-12-12-12-12-12-12-12-12-12-12-12-12-12-12-12-12-12-12-12-12--|
5. --x--x--x--x--x--x--x--x--x--x--x--x--x--x--x--x--x--x--x--x--x--|
6. -----------------------------------------------------------------|
             Am                 F         G                  C
no te pueden ver, no te pueden ver (mis ojos), no te pueden ver,
1. --x--x--x--x--x--x--x--x--x--x--x--x--x--x--x--x--x--x--x--x--x--|
2. -13-13-13-13-13-13-13-13-13-13-13-13-13-13-13-13-13-13-13-13-13--|
3. -12-12-12-12-12-12-12-12-12-12-12-12-12-12-12-12-12-12-12-12-12--|
4. -12-12-12-12-12-12-12-12-12-12-12-12-12-12-12-12-12-12-12-12-12--|
5. --x--x--x--x--x--x--x--x--x--x--x--x--x--x--x--x--x--x--x--x--x--|
6. -----------------------------------------------------------------|
             Am                  F         G                  C
no te pueden ver!! no te pueden ver (mis ojos), no te pueden ver,
1. --x--x--x--x--x--x--x--x--x--x--x--x--x--x--x--x--x--x--x--x--x--|
2. -13-13-13-13-13-13-13-13-13-13-13-13-13-13-13-13-13-13-13-13-13--|
3. -12-12-12-12-12-12-12-12-12-12-12-12-12-12-12-12-12-12-12-12-12--|
4. -12-12-12-12-12-12-12-12-12-12-12-12-12-12-12-12-12-12-12-12-12--|
5. --x--x--x--x--x--x--x--x--x--x--x--x--x--x--x--x--x--x--x--x--x--|
6. -----------------------------------------------------------------|
            Am                 F         G                  C
No no no no no!! no te pueden ver (mis ojos), no te pueden ver,
1. --x--x--x--x--x--x--x--x--x--x--x--x--x--x--x--x--x--x--x--x--x--|
2. -13-13-13-13-13-13-13-13-13-13-13-13-13-13-13-13-13-13-13-13-13--|
3. -12-12-12-12-12-12-12-12-12-12-12-12-12-12-12-12-12-12-12-12-12--|
4. -12-12-12-12-12-12-12-12-12-12-12-12-12-12-12-12-12-12-12-12-12--|
5. --x--x--x--x--x--x--x--x--x--x--x--x--x--x--x--x--x--x--x--x--x--|
6. -----------------------------------------------------------------|


*OUTRO:


   Ahhhhh, uhhhhhhh,
1. -----0----------0-1-----|
2. ---1---1------3-------0-|
3. -0-------0--0-------0---|
4. ------------------------|
5. ------------------------|
6. ------------------------|

1. -----0----------0-1-----|
2. ---1---1------3-------0-|
3. -0-------0--0-------0---|
4. ------------------------|
5. ------------------------|
6. ------------------------|

   ahhhhhhhh, uhhhhhhhh,     uhh.....
1. -----0----------0-1-----|--0--|
2. ---1---1------3-------0-|--1--|
3. -2-------2--0-------0---|--0--|
4. ------------------------|--2--|
5. ------------------------|--3--|
6. ------------------------|--0--|

Related for Mis Ojos tab