Song name
# A B C D E F G H I J K L M N O P Q R S T U V W X Y Z

Mana - Manda Una Senal tab

Esto va despues del CORO

e--------5-/-----------/------------/
B----------/--------8--/------------/
G--5-------/-----5-----/---------5--/
D-----7----/--7--------/------5-----/
A----------/-----------/---7--------/
E----------/-----------/------------/

           C                          G                    Am
e-------/--10h12--12--12--10--8----/--10--12--10-----------10--/
B--8--8-/--------------------------/--------------------------/
G-------/--------------------------/---------------12--9------/
D-------/--------------------------/--------------------------/
A-------/--------------------------/--------------------------/
E-------/--------------------------/--------------------------/

          G
e---8--------------------/
B------------------------/
G---------9h10--9--7--5--/
D------------------------/
A------------------------/
E------------------------/


esto es despues del segundo coro

*Solo*

e--------5-/-----------/------------/
B----------/--------8--/------------/
G--5-------/-----5-----/---------5--/
D-----7----/--7--------/------5-----/
A----------/-----------/---7--------/
E----------/-----------/------------/

e--------5-/-----------/------------/
B----------/--------8--/------------/
G--5-------/-----5-----/---------5--/
D-----7----/--7--------/------5-----/
A----------/-----------/---7--------/
E----------/-----------/------------/

e--------5-/-----------/----------------------/
B----------/--------8--/----------------------/
G--5-------/-----5-----/---------5------------/
D-----7----/--7--------/------5------------5--/
A----------/-----------/---7--------5---7-----/
E----------/-----------/----------------------/

e--------5-/-----------/------------/
B----------/--------8--/------------/
G--5-------/-----5-----/---------5--/
D-----7----/--7--------/------5-----/
A----------/-----------/---7--------/
E----------/-----------/------------/


e--------5-/-----------/--3-3-3-3-3-3-3---/
B----------/--------8--/--3-3-3-3-3-3-3---/
G--5-------/-----5-----/--4-4-4-4-4-4-4---/
D-----7----/--7--------/--5-5-5-5-5-5-5---/
A----------/-----------/--5-5-5-5-5-5-5---/
E----------/-----------/--3-3-3-3-3-3-3---/

*(segunda parte del solo)
   Am         F         C
e----------------------------------
B--8-8--------8-8-------8-8--------
G------10-9-------10-9------10-9---
D----------------------------------
A----------------------------------
E----------------------------------
 G
e----------------------------------
B----------------------------------
G------------9-10-9-----------------
D--12-10-12-------------------------
A----------------------------------
E----------------------------------
   Am         F         C
e----------------------------------
B--8-8--------8-8-------8-8--------
G------10-9-------10-9------10-9---
D----------------------------------
A----------------------------------
E----------------------------------
 G
e----------------------------------
B----------------------------------
G------------9-10-9-----------------
D--12-10-12-------------------------
A----------------------------------
E----------------------------------

Tap to rate this tab
 
# A B C D E F G H I J K L M N O P Q R S T U V W X Y Z