Song name
# A B C D E F G H I J K L M N O P Q R S T U V W X Y Z

Mana - Gitana tab

Hi,Im Gabriel and Im trying to put every song that UG dont have of Mana and thihs one 
from the album Falta Amor, Hope you can enjoy it and please rate it. Email me if you have 
correctiions or doubts to: gabys2guitar@yahoo.com Hablo españl too.

F#m               C#     D
Soñé que la perdía es verdad
   Bm          C#           F#m
Donde estas chiquita donde estas?
             C#
fui con la gitana
        D       Bm         E
a preguntarle donde se a metido.

F#m
no,no,no quiero fingir
     C#           D
me siento como morir,salveme
   Bm           C#           F#m
busquela en su bola de cristal
         C#            D
o déme alguna pista sensorial
  Bm          E             D
o dígame el hechizo para hallarla.

Chorus:

F#m      E        Bm   D
Cuenta gitana por favor
       A          D   E
donde busco a mi corazón.
     F#m       E        Bm  D
Sus palmas me dicen la razón
    A        D      E
O cuentan de mi dolor.

Verse 2:

F#m
Y ya lo sé
                C#                  D
por pobre me desprecias no hay razón
Bm          C#           F#m
yo te brindo un gran corazón
                C#
si puedes escucharme o mi amor
D          Bm         E
dame una oportunidad.
  F#m           C#               D
Oh,oh,oh,oh,oh hay amor oh,oh nara,na,nara
 Bm                     F#m
yo te doy sinceridad
       C#
yo te doy felicidad
  D        Bm        E             D
Vuelve ya eres una luna impenetrable.

Chorus:

F#m      E        Bm   D
Cuenta gitana por favor
       A          D   E
donde busco a mi corazón.
     F#m       E        Bm  D
Sus palmas me dicen la razón
    A        D      E
O cuentan de mi dolor.

F#m      E        Bm   D
Cuenta gitana por favor
       A          D   E
donde busco a mi corazón.
     F#m       E        Bm  D
Sus palmas me dicen la razón
    A        D      E
O cuentan de mi dolor.


SOLO:
e------3-5-5/7-7h8h10--8p7-5-7-8-10-7-3-5---------------|
B-7-3--------------------------------------3h5p3--------|
G---------------------------------------------------3---|
D------------------------------------------------5------|
A-------------------------------------------------------|
E-------------------------------------------------------|


e----------------------------------3-5-2-3p2---9-7-5-----|
B------------------------4-6-5-6-5------------10-9-7-----|
G----------3/5--5h6---5-7--------------------------------|
D------3-5---------5-7-----------------------------------|
A--3-5---------------------------------------------------|
E--------------------------------------------------------|


e-9-9-9-7-5-7-7/9-9-7-5-----5-7-9---------------------1-2-3-2--------|
B-----------------------9-7-----------------13-11-9--3--------3-1----|
G-----------------------------------15-12-10----------------------3v-|
D--------------------------------------------------------------------|
A--------------------------------------------------------------------|
E--------------------------------------------------------------------|


e----------------------7h8-7-10-12---11-11-7-11---11-11-7-11v--------|
B-----5-7---9-11-9-----------------5------------5--------------------|
G---7-----7----------9-----------------------------------------------|
D--------------------------------------------------------------------|
A--------------------------------------------------------------------|
E--------------------------------------------------------------------|
  The solo is play with the verse chords.

    D                             E
Quizas la luna se caiga en pedazos
   C#m                        F#m  E
Quizas la muerte me pise los pasos
     D                           E
por pobre estoy sufriendo tus rechazos
   C#m                      D            E
quizas una palabra que no piense mas vivir.

Chorus:

F#m      E        Bm   D
Cuenta gitana por favor
       A          D   E
donde busco a mi corazón.
     F#m       E        Bm  D
Sus palmas me dicen la razón
    A        D      E
O cuentan de mi dolor.

Oh,no,no devuelvanlo oh,no,no devuélvanlo
oh mi corazón lara la la lalá
Tap to rate this tab
# A B C D E F G H I J K L M N O P Q R S T U V W X Y Z