Song name
# A B C D E F G H I J K L M N O P Q R S T U V W X Y Z

Manafest - Every Time You Run tab

Capo 1

Intro & Verse:
E|----5----5------2-2-3-2-----5----5-----2-2-3-2-----|
B|---3-3--3-3----3-3-----3---3-3--3-3---3-3-----3----|
G|---------------------------------------------------|
D|-0-------------------------------------------------|
A|------------0------------2-------------------------|
E|------------------------------------3--------------|

Pre-Chorus:
E|-----------------0-------------3-------|
B|---3----3----2-3------3----3---3-------|
G|--0-0--0-0-----------0-0--0-0--0-------|
D|-------------------------------0-------|
A|---------------------------------------|
E|-0---------3-------0-----------3-------|

Chorus:
E|-0----0----3----0---------------|
B|-3----3----3----3---------------|
G|-2----2----0----2---------------|
D|-0----X----0----2---------------|
A|------2----X----0---------------|
E|------0----3--------------------|

Every Time You Run - Manifest

Verse 1: D A Bm G
Last night got a little crazy, I donít remember, woke up spun with the pasties
My friends say I was tweaked out, Passed out on a dirty coach, still in the house
It kind of scares me, I donít know am I out of control, always waking up still in my clothes
I wrote a note that said goodbye to pain, good bye to shame, 
But couldnít find a way, I just cry for days

Pre-Chorus: Em G Em G
Iím so depressed, soak in wet, I canít rest, These thoughts just beat me to death Iím un-kept
I thought of a song my mom used to sing in church but itís been so long I canít remember the words

Chorus: D Bm G A
Every time you run, every time you hide
Every time it hurts, every time you cry
Every time you run away, every time you hide your face
And it feels so far away, Iím right here, with you

Verse 2:
I keep sleeping in donít want to wake up, I keep hearing from the landlord pay up
Hide my face in my pillow till the sunsets, Hung over and I havenít seen a pay check
I took a job downtown at the factory, I was hired and fired with no salary
I keep running from responsibility, Itís seems impossible, the pressure is hitting me

Pre-Chorus 2:
I know I need to man up, or sit down, stand up and get out of this crowd
I thought of a song my mom used to sing in church but itís been so long I canít remember the words

Verse 3:
Well I know Iím not ready to die, But Iím sure thought about the meaning of life
Cause I canít seem to find a purpose for me, Itís just the choices and I fail to proceed
I gotta get up, get up, get up, get up, get up, get up, get up, get up, get up
I hear voices in my mind, ones a devil, ones Jesus
I can feel it can you help me find the pieces

Pre-Chorus 3:
Like an angel on my shoulder, you hold the
Joy of the lord raising up a soldier
You gave me the song my mom used to sing in church
I promised not to quit and I remembered the words
I promised not to quit and I remembered the words

Tap to rate this tab
 
# A B C D E F G H I J K L M N O P Q R S T U V W X Y Z