Song name
# A B C D E F G H I J K L M N O P Q R S T U V W X Y Z

Manateee - Gorda Chata E Feia tab

Manateee!!!
fala seeeeeeeeeeeeeeeeio ai
Essa eh a banda mais animal do mundo!
Bruno Ferri, Rics Rego, Rafael Ribeiro e eu Rafael Britto
Essa eh uma musica do novo cd 3-8


Gorda, Chata e Feia

INTRO

e----------------------------------------------------
B----------------------------------------------------
G----------------------------------------------------
D----------------------------------------------------
A---------0-0-7-9-------0-0-7-9-------0-0-7-9-------0
E-0-0-7-9--------0-0-7-9-------0-0-7-9-------0-0-7-9-

VERSE: Am C

CHORUS(power chords)

e----------------------------------------------------
B----------------------------------------------------
G----------------------------------------------------
D--------9-----------7-----------5-------------------    X2
A--------9-----------7-----------5-------------------
E--------7-----------5-----------3-------------------

BRIGDE

e----------------------------------------------------
B----------------------------------------------------
G----9----------7------5---------7-------------------
D---9-9--------7------5-5-------7--------------------   X2
A--9---9------7------5---5-----7---------------------
E-7-----7----5------3-----3---5----------------------
Tap to rate this tab
# A B C D E F G H I J K L M N O P Q R S T U V W X Y Z