Guitaretab - guitar tabs
Song name
# A B C D E F G H I J K L M N O P Q R S T U V W X Y Z

Manchester Orchestra - Black Man tab

This is only my 2nd attempt at tabbing a song.  I used a video of a live performance as
guide so the actual recording (especially the solo) may end up being different.  The
link is:
http://www.youtube.com/watch?v=V2gcEk7_oB4
You'll have to figure the strumming pattern out yourself, but i don't think it's very hard.

Tune guitar half a step down.

Intro riff
   E   C G Am E  B D
|--0---0-3--0-0--x-x------|
|--0---1-3--1-0--x-x------|
|--1---0-0--2-1--4/7------|
|--2---2-0--2-2--4/7------|
|--2---3-2--0-2--2/5------|
|--0---x-3--x-0--x-x------|

1st half of verse
|-----------------|
|-----------------|
|-----------------|
|-----------------|
|-----------------|
|--0--3--8--7--5--|

2nd half of verse
|-----------------|
|-----------------|
|-----------------|
|-----------------|
|--2--5--10-9--7--|
|--0--3--8--7--5--|

chorus
   E  A  D
|--0--0--2---|
|--0--2--3---|
|--1--2--2---|
|--2--2--0---|
|--2--o--x---|
|--0--x--x---|


intro riff (x3)
strum E chord several times for filler
1st half of verse (x2)
strum all strings open
2nd half of verse (x2)
Bend 8th note then 7th note on top E string for filler
chorus riff (x2)

intro riff (x2)
strum E chord several times for filler
1st half of verse (x2)
strum all strings open
2nd half of verse (x2)
Bend 8th note then 7th note on top E string for filler
chorus riff (x2)
|--------|
|--------|
|--------|
|--7--9--|
|--7--9--|
|--5--7--|
chorus riff (x3)
intro riff (x2)
[ Tab from: http://www.guitaretab.com/m/manchester-orchestra/108204.html ]
solo                                         |---muted------|
|-----------------------------------------------------------|
|--5/9-7-7--------------------------------------------------|
|-------9-9----9-9-8h9p8-8\6----9--7-7--7-7--7(x about 14---|
|-----------------------------------------------------------|
|-----------------------------------------------------------|
|-----------------------------------------------------------|

1st half of verse (x2)
strum all strings open
2nd half of verse (x2)
chorus riff (x2)
|--0-----|
|--2-----|
|--2--4--|
|--2--4--|
|--0--2--|
|--------|
chorus riff (x3)
strum E chord for filler
then
|------------------------|
|------------------------|
|------------------------|
|------------------------|
|------------------------|
|--0--8--3--5--0--7--10--|
then start with the open E string again but instead of going to the 8th fret finish the 
the intro riff
continue intro riff (x2)
strum E chord several times and end with something like this
|--12--|
|--12--|
|--12--|
|--12--|
|------|
|------|


note: during the 2nd half of the verse, a second guitar plays something like this:
|--------------------------------------------|
|---9---9------------------------------------|
|--9--9-11----9---8---6----------------------|
|-----------10---9---7--------6--5-----------|
|----------------------------7--7---7--6--4--|
|----------------------------------8--7--5---|
if you have only one guitar, you can just play this during the 2nd half of the verse if
think it sounds better.
Related for Black Man tab
Black Man chords by Manchester Orchestra