Song name
# A B C D E F G H I J K L M N O P Q R S T U V W X Y Z

Manchester Orchestra - I Can Feel A Hot One tab

Tab by: Owen Thomas
Tuning: Standard

Note: This is the intro for the song, but it is also the main theme.  You can play this 
in the song except for the bridge.

Intro:
e:--------------------------------|
B:--------------------------------|
G:------13-----12-------13-----12-|
D:----10--10-10-------10--10-10---|
A:--11------11------11------11----|
E:--------------------------------|

I can feel a hot one taking me down...
e:--------------------------------|
B:--------------------------------|
G:------13-----12-------13-----12-|
D:----10--10-10-------10--10-10---|
A:--11------11------11------11----|
E:--------------------------------|

Fainted to the point of tears...
e:--------------------------|
B:-----9-----9------6-----8-|
G:---10-10-10-----6--6--8---|
D:--------------------------|
A:--8-----8------4-----6----|
E:--------------------------|

REPEAT
Tap to rate this tab
# A B C D E F G H I J K L M N O P Q R S T U V W X Y Z