Song name
# A B C D E F G H I J K L M N O P Q R S T U V W X Y Z

Manchester Orchestra - 100 Dollars tab

Tuned 1/2 step down
Enjoy

Intro
Eb|---------------------|
Bb|---------------------|
Gb|---------------------|
Db|---------------------| 2X
Ab|--14-14-14-14-14-14--|
Eb|--12-12-12-12-12-12--| 

Verse 
    Several womens magazines...
Eb|---------------------|
Bb|---------------------|
Gb|---------------------|
Db|---------------------| 2X
Ab|--14-14-14-14-14-14--|
Eb|--12-12-12-12-12-12--| 

    ...tried to call...
Eb|---------------|
Bb|---------------|
Gb|---------------|
Db|---------------| 
Ab|--7-7-7-7-7-7--|
Eb|--5-5-5-5-5-5--| 

    ...answered.
Eb|---------------------|
Bb|---------------------|
Gb|---------------------|
Db|---------------------|
Ab|--14-14-14-14-14-14--|
Eb|--12-12-12-12-12-12--| 
  
    It's not even that...
Eb|---------------------|
Bb|---------------------|
Gb|---------------------|
Db|---------------------| 2X
Ab|--14-14-14-14-14-14--|
Eb|--12-12-12-12-12-12--| 

    ...there's an under...
Eb|---------------|
Bb|---------------|
Gb|---------------|
Db|---------------| 
Ab|--7-7-7-7-7-7--|
Eb|--5-5-5-5-5-5--| 

    ...standing.
Eb|---------------------|
Bb|---------------------|
Gb|---------------------|
Db|---------------------|
Ab|--14-14-14-14-14-14--|
Eb|--12-12-12-12-12-12--| 

    And I offered you..
Eb|---------------|
Bb|--5-5-5-5-5-5--|
Gb|--6-6-6-6-6-6--|
Db|--6-6-6-6-6-6--| 2X
Ab|--4-4-4-4-4-4--|
Eb|---------------| 
    ...kitchen.
Eb|---------------|
Bb|---------------|
Gb|--6-6-6-6-6-6--|
Db|--7-7-7-7-7-7--| 
Ab|--7-7-7-7-7-7--|
Eb|--5-5-5-5-5-5--|
    ...you to feel at home.
Eb|---------------|
Bb|--5-5-5-5-5-5--|
Gb|--6-6-6-6-6-6--|
Db|--6-6-6-6-6-6--| 2X
Ab|--4-4-4-4-4-4--|
Eb|---------------|

               E
Thats why I'm fine

I am fine

I am fine

I am fine
        A
I just need one hundred dollars
       E
I am fine

I am fine

I am fine

I am fine
         A                   E
I just need one hundred dollars
              A                       E
From you and you and you and you and you

A  E
Tap to rate this tab
 
# A B C D E F G H I J K L M N O P Q R S T U V W X Y Z