Song name
# A B C D E F G H I J K L M N O P Q R S T U V W X Y Z

Manchester Orchestra - Everything To Nothing tab

Feedback welcome

Drop Db tuning (Db Ab Db Gb Bb eb)

Intro
|----|
|----|
|----|
|-5--|
|-5--|
|-5--|

Guitar1
|--------------|
|--------------|
|--------------|
|--5--4--9--0--|
|--5--4--9--0--|
|--5--4--9--0--|

Guitar2
|----------10--12-14----14-12-10--|
|--12--11-------------------------|
|----------11--12-14----14-12-11--|
|--12--11-------------------------|
|---------------------------------|
|---------------------------------|

Guitar1
|-----------------------|
|-----------------------|
|-----------------------|
|--5--7--9--0--5--4--0--|
|--5--7--9--0--5--4--0--|
|--5--7--9--0--5--4--0--|X2

Guitar2
|---------------|
|---------------|
|-7-9-11--7-6-2-|
|---------------|
|-5-7-9---5-4-0-|
|---------------|X2


Verse(palm-muted)
|--------------------|
|--------------------|
|--------------------|
|--5--7--9--9--7--0--|
|--5--7--9--9--7--0--|
|--5--7--9--9--7--0--|
"Definitely not the things..."

|-----------------------|
|-----------------------|
|-----------------------|
|--5--7--9--0--9--7--0--|
|--5--7--9--0--9--7--0--|
|--5--7--9--0--9--7--0--|
"I found a note..."

|-----------------------|                                 
|-----------------------|                                          
|-----------------------|                                          
|--9--7--0--5--5--7--0--|                                          
|--9--7--0--5--5--7--0--|                                          
|--9--7--0--5--5--7--0--|X2   after the time there's a little 
filler riff that goes:
|----------------|
|----------------|
|-11h12p11h12p11-|
|----------------|
|----------------|
|----------------|
"I'm not complaining..."

Pre-chorus
|------|
|------|
|------|
|-5--4-|
|-5--4-|
|-5--4-|
"You mean..."

Chorus
Guitar1
|-----------------------|
|-----------------------|
|-----------------------|
|--5--7--9--0--5--4--0--|
|--5--7--9--0--5--4--0--|
|--5--7--9--0--5--4--0--|X2

Guitar2
|---------------|
|---------------|
|-7-9-11--7-6-2-|
|---------------|
|-5-7-9---5-4-0-|
|---------------|X2


Verse(palm muted first time)
|--------------------|                                   |-14-----|
|--------------------|                                   |---15---|
|--------------------|                                   |-----14-|
|--5--7--9--9--7--0--|                                   |--------|
|--5--7--9--9--7--0--|                                   |--------|
|--5--7--9--9--7--0--|X2 after first time Guitar 2 plays |--------| til end of verse
"I don't know much..."

|-10-12-14-12-10-|
|----------------|
|-11-12-14-12-11-|
|----------------|
|----------------|
|----------------|X2
second "I don't know what to do..."

Pre-chorus
|------|
|------|
|------|
|-5--4-|
|-5--4-|
|-5--4-|
"And you, well you mean..."

Chorus
Guitar1
|-----------------------|
|-----------------------|
|-----------------------|
|--5--7--9--0--5--4--0--|
|--5--7--9--0--5--4--0--|
|--5--7--9--0--5--4--0--|X2

Guitar2
|---------------|
|---------------|
|-7-9-11--7-6-2-|
|---------------|
|-5-7-9---5-4-0-|
|---------------|X2


Bridge
|------------0--------------------------|
|--------------------12----------15-----|
|----4--------2--------11----------14---|
|-5---5---4-4--4--9------9--12-12----12-|
|-5-5--5--4-------9-9-------12----------|
|-5-------4-------9---------12----------|X4(can split between 2 guitars)
"You mean everything to nothing..."

Guitar1
|----|     |---------|
|----|     |---------|
|----|     |---------|
|-5--|     |-5p0-5p0-|
|-5--|     |-5p0-5p0-|
|-5--|X12  |-5p0-5p0-|

Guitar2
|----|     |-----|
|----|     |-----|
|-7--|     |-7/2-|
|----|     |-----|
|-5--|     |-5/0-|
|----|X12  |-----|

Guitar1
|-----------------|
|-----------------|
|-----------------|
|-9--7--5--5--5p0-|
|-9--7--5--5--5p0-|
|-9--7--5--5--5p0-|

Guitar2
|-----------------|
|-----------------|
|-11-9-7-7/12-4-2-|
|-----------------|
|-9--7-5-5/10-2-0-|
|-----------------|

Guitar1
|------------------|
|------------------|
|------------------|
|-9--7--5--4--9--0-|
|-9--7--5--4--9--0-|
|-9--7--5--4--9--0-|
"You mean everything to nothing..."

Guitar2
|-----------------|
|-----------------|
|-11-9-7-7-6-4-2--|
|-----------------|
|-9--7-5-5-4-2-0--|
|-----------------|

Guitar1
|--------------|
|--------------|
|--------------|
|--5--4--9--0--|
|--5--4--9--0--|
|--5--4--9--0--|X2

Guitar2
|-----------|
|-----------|
|--7-6-4-2--|
|-----------|
|--5-4-2-0--|
|-----------|X2

Guitar1
|-----------------------|
|-----------------------|
|-----------------------|
|--5--7--9--0--5--4--0--|
|--5--7--9--0--5--4--0--|
|--5--7--9--0--5--4--0--|X2

Guitar2
|---------------|
|---------------|
|-7-9-11--7-6-2-|
|---------------|
|-5-7-9---5-4-0-|
|---------------|X2

|----|
|----|
|----|
|-5--|
|-5--|
|-5--|

Outro
Guitar1
|--------------|
|--------------|
|--------------|
|--5--4--9--0--|
|--5--4--9--0--|
|--5--4--9--0--|

Guitar2
|----------10--12-14----14-12-10--|
|--12--11-------------------------|
|----------11--12-14----14-12-11--|
|--12--11-------------------------|
|---------------------------------|
|---------------------------------|

GUitar1
|-----------------------------|
|-----------------------------|
|-----------------------------|
|-0/2/4/5--7/4--4/5/7/9--9p0--|
|-0/2/4/5--7/4--4/5/7/9--9p0--|
|-0/2/4/5--7/4--4/5/7/9--9p0--|X3

|----------|
|----------|
|----------|
|-0/2/4/5--|
|-0/2/4/5--|
|-0/2/4/5--|

Guitar2
|-----10----------9-10--12-14----14-12-10--|          |----|
|--12---11--11-12--------------------------|          |-12-|
|-----11----------9-11--12-14----14-12-11--|          |----|
|--12---11--11-12--------------------------|          |-12-|
|------------------------------------------|          |----|
|------------------------------------------|X3 end on |----|


Tap to rate this tab
 
# A B C D E F G H I J K L M N O P Q R S T U V W X Y Z