Song name
# A B C D E F G H I J K L M N O P Q R S T U V W X Y Z

Manchester Orchestra - Slow To Learn tab

Manchester Orchestra - Slow To Learn

standard tuning
yep

intro and such

e|---------------------------------------------------------------|
B|---------------------------------------------------------------|
G|---------------------------------------------------------------| 
D|-2-2-4-4-6-6-4-2--2-4-4-6-6-4-2-4-4-2-2-1-1-2-2--4-2-2-1-1-2-2-|
A|-0-0-0-0-0-0-0-0--0-0-0-0-0-0-0-4-4-4-4-4-4-4-4--4-4-4-4-4-4-4-|
E|---------------------------------------------------------------|
   . . . . . . . .  . . . . . . . . . . . . . . .  . . . . . . .


Chorus (idk if they use power cords for this but whatever)

e|---------------------------|
B|---------------------------|
G|--------------------9------| you know the pattern
D|-7--------11--------9------|
A|-7--------11--------7------|
E|-5--------9----------------|

Bridge (Guitar 1)

e|------------------------------------------------------|
B|------------------------------------------------------|
G|------6-6-6---------6-6-6-----------------------------|
D|-7-7---------7-7-7---------------6-6-6---------6-6b---|
A|--------------------------7-7-7---------7-7-7---------|
E|------------------------------------------------------|

Bridge (Guitar 2)

e|------------------------------------------------------|
B|------------------------------------------------------|
G|------------------------------------------------------|
D|------------------------------------------------------|
A|------4-4-4--------4-4-4------------------------------|
E|-5-5---------5-5-5--------0-0-0--4-4-4--0-0-0--4-4b---|

or you can just do both parts with octaves.
thats pretty much it though.
gimme 5 stars! :D

palm mute .
bend b
Tap to rate this tab
# A B C D E F G H I J K L M N O P Q R S T U V W X Y Z