Song name
# A B C D E F G H I J K L M N O P Q R S T U V W X Y Z

Manchester Orchestra - I Am A Book Torn tab

e--x-----x-----x------------------|
B--x-----x-----x------------------|
G--7-----6-----4------------------|
D--0-----0-----0------------------| 6x
A--x-----x-----x------------------|
E--7-----5-----3------------------|

e--x-----x-----x------x-----x-----x-----x------x-----x-----|
B--x-----x-----x------x-----x-----x-----x------x-----x-----|
G--6-----7-----11-----6-----7-----9-----11-----6-----7-----|
D--0-----0-----0------0-----0-----0-----0------0-----0-----|
A--x-----x-----x------x-----x-----x-----x------x-----x-----|
E--5-----7-----10-----5-----7-----9-----10-----5-----7-----|

e--x-----x-----x------x------------|
B--x-----x-----x------x------------|
G--7-----9-----11-----12-----------|
D--0-----0-----0------0------------| 2x End on 10 x 0 11 x x second time
A--x-----x-----x------x------------|
E--7-----9-----10-----12-----------|

e--x-----x-----x------------------|
B--x-----x-----x------------------|
G--7-----6-----4------------------|
D--0-----0-----0------------------| 4x
A--x-----x-----x------------------|
E--7-----5-----3------------------|

e--x-----x-----x------x-----x-----x-----x------x-----x-----|
B--x-----x-----x------x-----x-----x-----x------x-----x-----|
G--6-----7-----11-----6-----7-----9-----11-----6-----7-----|
D--0-----0-----0------0-----0-----0-----0------0-----0-----|
A--x-----x-----x------x-----x-----x-----x------x-----x-----|
E--5-----7-----10-----5-----7-----9-----10-----5-----7-----|

e--x-----x-----x------x------------|
B--x-----x-----x------x------------|
G--7-----9-----11-----12-----------|
D--0-----0-----0------0------------| 2x End on 10 x 0 11 x x second time
A--x-----x-----x------x------------|
E--7-----9-----10-----12-----------|

e--x-----x-----x------x------------|
B--x-----x-----x------x------------|
G--7-----9-----11-----12-----------|
D--0-----0-----0------0------------| 2x End on 10 x 0 11 x x second time
A--x-----x-----x------x------------|
E--7-----9-----10-----12-----------|

e--x-----x-----x------x-------------|
B--x-----x-----x------x-------------|
G--7-----9-----11-----12------------|    Extra strumming pattern
D--0-----0-----0------0-------------| 2x End with the pre-chorus riff
A--x-----x-----x------x-------------|
E--7-----9-----10-----12------------|
Tap to rate this tab
# A B C D E F G H I J K L M N O P Q R S T U V W X Y Z