Song name
# A B C D E F G H I J K L M N O P Q R S T U V W X Y Z

Manchester Orchestra - Sleeper 1972 Acoustic tab

I'm 100% sure this tab is right. This is EXACTTLY what he does on Manchester 
Orchestra's 26th podcast on youtube. 
                             


                              Intro
e|-----------------------------------------------------------------|
B|-----------------------------------------------------------------|
G|-----------------------------------------------------------------|
D|----0---0---0---0---0---0---0---0---0---0---0---0---0---0---0---0|
A|--2---2---4---4---5---5---5---5---2---2---0---0------------------|
E|--------------------------------------------------3---3---3---3--|


                              Verse 1
e|-------------------------------------------------------------------|
B|-------------------------------------------------------------------|
G|-------------------------------------------------------------------|
D|----0---0---0---0---0---0---0---0----0----0---0---0---0---0---0---0|
A|--2---2---4---4---5---5---5---5---10---10---9---9---7---7---7---7--|
E|-------------------------------------------------------------------|
       "When my dad died"           "The worms ate out both his eyes"

e|-------------------------------------------|
B|-------------------------------------------|
G|-------------------------------------------|
D|-----0----0---0---0---0---0---0---0---0---0|
A|--10---10---9---9---7---7---7---7---9---7--|
E|-------------------------------------------|
    "His soul flew right up in the sky, and I cried myself to sleep"

e|-------------------------------------------------------------------|
B|-------------------------------------------------------------------|
G|-------------------------------------------------------------------|
D|----0---0---0---0---0---0---0---0-----0---0---0---0---0---0---0---0|
A|--2---2---0---0-------------------0h2---2---0---0------------------|
E|------------------3---3---3---3---------------------3---3---3---3--|


                              Verse 2
e|-------------------------------------------------------------------|
B|-------------------------------------------------------------------|
G|-------------------------------------------------------------------|
D|----0---0---0---0---0---0---0---0----0----0---0---0---0---0---0---0|
A|--2---2---4---4---5---5---5---5---10---10---9---9---7---7---7---7--|
E|-------------------------------------------------------------------|
       "My mother lies"           "Alone on her back at night"

e|-------------------------------------------|
B|-------------------------------------------|
G|-------------------------------------------|
D|-----0----0---0---0---0---0---0---0---0---0|
A|--10---10---9---9---7---7---7---7---9---7--|
E|-------------------------------------------|
    "Adding up hours till her demise, she counts herself to sleep."

e|-------------------------------------------------------------------|
B|-------------------------------------------------------------------|
G|-------------------------------------------------------------------|
D|----0---0---0---0---0---0---0---0-----0---0---0---0---0---0---0---0|
A|--2---2---0---0-------------------0h2---2---0---0------------------|
E|------------------3---3---3---3---------------------3---3---3---3--|


                              Verse 3
e|-------------------------------------------------------------------|
B|-------------------------------------------------------------------|
G|-------------------------------------------------------------------|
D|----0---0---0---0---0---0---0---0----0----0---0---0---0---0---0---0|
A|--2---2---0---0----------------------------------------------------|
E|------------------3---3---3---3---10---10---9---9---7---7---7---7--|
       "When my sister finds"      "My body closed up like the blinds"

e|-------------------------------------------|
B|-------------------------------------------|
G|-------------------------------------------|
D|-----0----0---0---0---0---0---0---0---0---0|
A|--10---10---9---9---7---7---7---7---9---7--|
E|-------------------------------------------|
   "I tell her I promise I'm fine, but she cries herself to sleep"  

e|-----------------------------------------------------------------|
B|-----------------------------------------------------------------|
G|-----------------------------------------------------------------|
D|----0---0---0---0---0---0---0---0---0---0---0---0---0---0---0---0|
A|--2---2---0---0-------------------2---2---0---0------------------|
E|------------------3---3---3---3-------------------3---3---3---3--|
                                   "La da da da da da da da da da, da"


                              Verse 4
e|-------------------------------------------------------------------|
B|-------------------------------------------------------------------|
G|-------------------------------------------------------------------|
D|----0---0---0---0---0---0---0---0----0----0---0---0---0---0---0---0|
A|--2---2---4---4---5---5---5---5---10---10---9---9---7---7---7---7--|
E|-------------------------------------------------------------------|
     "When the men in black ties"      "Arrive at the house in surprise"

e|-------------------------------------------|
B|-------------------------------------------|
G|-------------------------------------------|
D|-----0----0---0---0---0---0---0---0---0---0|
A|--10---10---9---9---7---7---7---7---9---7--|
E|-------------------------------------------|
"They find a little girl by your side, in the wood box where you're sleeping"

e|-----------------------------------------------------------------|
B|-----------------------------------------------------------------|
G|-----------------------------------------------------------------|
D|----0---0---0---0---0---0---0---0---0---0---0---0---0---0---0---0|
E|------------------3---3---3---3-------------------3---3---3---3--|
A|--2---2---0---0-------------------2---2---0---0------------------|
                                   "La da da da da da da da da da, da"
e|---------------------------------|
B|---------------------------------|
G|---------------------------------|
D|----0---0---0---0---0---0---0---0|
A|--2---2---0---0------------------|
E|------------------3---3---3---3--|
   "La da da da da da da da da da, da"

                            Verse 5/ Outro
e|-----------------------------------------------------------------|
B|-----------------------------------------------------------------|
G|-----------------------------------------------------------------|
D|----0---0---0---0---0---0---0---0---0---0---0---0---0---0---0---0|
A|------------------0---0---0---0---2---2---0---0------------------|
E|--3---3---3---3-----------------------------------3---3---3---3--|
           "And I still see you"   "Inside of this God-awful house"

e|---------------------------------|
B|---------------------------------|
G|---------------------------------|
D|----0---0---0---0---0---0---0---0|
A|--2---2---0---0------------------|
E|------------------3---3---3---3--|
  "And you move awfully quiet now"
               
e|-----------------------------------------------------------------|
B|-----------------------------------------------------------------|
G|-----------------------------------------------------------------|
D|----0---0---0---0---0---0---0---0---0---0---0---0---0---0---0---0|
A|------------------0---0---0---0---2---2---0---0------------------|
E|--3---3---3---3-----------------------------------3---3---3---3--|
           "And I still see you"   "Everywhere"

e|---------------------------------|
B|---------------------------------|
G|---------------------------------|
D|----0---0---0---0---0---0---0---0|
A|--2---2---0---0------------------|
E|------------------3---3---3---3--|
 "You told me this has always been worth living"

e|-------------------------------------------------|
B|-------------------------------------------------|
G|-------------------------------------------------|
D|----0---0---0---0---0---0---0---0---0---0---0---0|
A|-------------------------------------------------|
E|--3---3---3---3---3---3---3---3---3---3---3---3--|
           "But what's really worth living anymore"

e|-----------------------------------------------------------------|
B|-----------------------------------------------------------------|
G|-----------------------------------------------------------------|
D|----0---0---0---0---0---0---0---0---0---0---0---0---0---0---0---0|
E|------------------3---3---3---3-------------------3---3---3---3--|
A|--2---2---0---0-------------------2---2---0---0------------------|
                                   "La da da da da da da da da da, da"

e|-------------------|
B|-------------------|
G|-------------------|
D|----0---0---0---0--|
A|--2---2---0---0----|
E|------------------3|

Tap to rate this tab
# A B C D E F G H I J K L M N O P Q R S T U V W X Y Z