Song name
# A B C D E F G H I J K L M N O P Q R S T U V W X Y Z

Manchester Orchestra - I Can Feel Your Pain tab

-------------------------------------------------------------------------------
			     I can Feel Your Pain - Manchester Orchestra
-------------------------------------------------------------------------------
Tabbed by: Amanda
Email: ashannon@purdue.edu

Tuning: Standard

Listen to the song for strumming.  This is my first tab--leave feedback!

VERSE (2X)
e|---0---0--0-0---0---3---3---0--0---0-0------------------------------------|
B|---1---1--1-1---1---0---0---1--1---1-1------------------------------------|
G|---2---2--2-0---0---0---0---2--2---2-0------------------------------------|
D|---2---2--0-2---2---0---0---2--0/2-0-2------------------------------------|
A|---0---0--2-3---3---2---2---0--0---0-3------------------------------------|
E|---0---0--0-0---0---3---3---0--0---0-0------------------------------------|

e|---0---0--0-0---0---3---3---0---0-----------------------------------------|
B|---1---1--1-1---1---0---0---1---1-----------------------------------------|
G|---2---2--2-0---0---0---0---2---2-----------------------------------------|
D|---2---2--0-2---2---0---0---2---2-----------------------------------------|
A|---0---0--2-3---3---2---2---0---0-----------------------------------------|
E|---0---0--0-0---0---3---3---0---0-----------------------------------------|

CHORUS (1X)

e|---1---1-1-1---0--0---0-0-0---0---3---------------------------------------|
B|---1---1-1-1---1--1---1-1-1---1---0---------------------------------------|
G|---2---2-0-0---0--0---0-0-2---2---0---------------------------------------|
D|---3---3-3-3---2--0/2-0-0-2---2---0---------------------------------------|
A|---3---3-3-3---3--3---3-3-0---0---2---------------------------------------|
E|---1---1-1-1---0--0---0-0-0---0---3---------------------------------------|

VERSE (1X)
e|---0---0--0-0---0---3---3---0--0---0-0------------------------------------|
B|---1---1--1-1---1---0---0---1--1---1-1------------------------------------|
G|---2---2--2-0---0---0---0---2--2---2-0------------------------------------|
D|---2---2--0-2---2---0---0---2--0/2-0-2------------------------------------|
A|---0---0--2-3---3---2---2---0--0---0-3------------------------------------|
E|---0---0--0-0---0---3---3---0--0---0-0------------------------------------|

e|---0---0--0-0---0---3---3---0---0-----------------------------------------|
B|---1---1--1-1---1---0---0---1---1-----------------------------------------|
G|---2---2--2-0---0---0---0---2---2-----------------------------------------|
D|---2---2--0-2---2---0---0---2---2-----------------------------------------|
A|---0---0--2-3---3---2---2---0---0-----------------------------------------|
E|---0---0--0-0---0---3---3---0---0-----------------------------------------|

CHORUS (2X--quieter the second time)

e|---1---1-1-1---0--0---0-0-0---0---3---------------------------------------|
B|---1---1-1-1---1--1---1-1-1---1---0---0---0-------------------------------|
G|---2---2-0-0---0--0---0-0-2---2---0---0---0-------------------------------|
D|---3---3-3-3---2--0/2-0-0-2---2---0---0/2-0-------------------------------|
A|---3---3-3-3---3--3---3-3-0---0---2---------------------------------------|
E|---1---1-1-1---0--0---0-0-0---0---3---------------------------------------|


e|---1---1-1-1---0--0---0-0-0---0---3---------------------------------------|
B|---1---1-1-1---1--1---1-1-1---1---0---------------------------------------|
G|---2---2-0-0---0--0---0-0-2---2---0---------------------------------------|
D|---3---3-3-3---2--0/2-0-0-2---2---0---------------------------------------|
A|---3---3-3-3---3--3---3-3-0---0---2---------------------------------------|
E|---1---1-1-1---0--0---0-0-0---0---3---------------------------------------|

ENDING

e|---1---1-1-1---0--0---0-0-0---0---3---------------------------------------|
B|---1---1-1-1---1--1---1-1-1---1---0---0---0-------------------------------|
G|---2---2-0-0---0--0---0-0-2---2---0---0---0-------------------------------|
D|---3---3-3-3---2--0/2-0-0-2---2---0---0/2-0-------------------------------|
A|---3---3-3-3---3--3---3-3-0---0---2---------------------------------------|
E|---1---1-1-1---0--0---0-0-0---0---3---------------------------------------|

e|---1---1-1-1---0--0---0-0-0---0---3----------0----------------------------|
B|---1---1-1-1---1--1---1-1-1---1---0---0---0--1----------------------------|
G|---2---2-0-0---0--0---0-0-2---2---0---0---0--2----------------------------|
D|---3---3-3-3---2--0/2-0-0-2---2---0---0/2-0--2----------------------------|
A|---3---3-3-3---3--3---3-3-0---0---2----------0----------------------------|
E|---1---1-1-1---0--0---0-0-0---0---3----------0----------------------------|

Tap to rate this tab
 
# A B C D E F G H I J K L M N O P Q R S T U V W X Y Z