Song name
# A B C D E F G H I J K L M N O P Q R S T U V W X Y Z

Manchester Orchestra - The Neighborhood Is Bleeding tab

"The Neighborhood Is Bleeding" - Manchester Orchestra

Tuning: Drop D

Tabbed By: ..McLovin..

Intro/Verse 1

[Guitar 1]
  "I heard the neighborhood was bleeding..."
e|-----------------------------------------------------------------|
B|-----------------------------------------------------------------|
G|-----------------------------------------------------------------|
D|-----2---4--------2---4--2-4-2-2---------------------------------|(X3)
A|-0-0-0-0-0--0-0-0-0-0-0--0-0-0-0-0-4-4-2-0-0-0-2-4-2-0-0---------|
D|-----------------------------------------------------------------|

[Guitar 2]
e|---------------------------------0~~-----------------------------|
B|---------------------------------3~~-----------------------------|
G|---------------------------------2~~-----------------------------|
D|--(rest)-------------------------0~~-----------------------------| (X1)
A|---------------------------------0~~-----------------------------|
D|---------------------------------0~~-----------------------------|

e|-0~~-----------------------------0~~-----------------------------|
B|-2~~-----------------------------3~~-----------------------------|
G|-2~~-----------------------------2~~-----------------------------|
D|-2~~-----------------------------0~~-----------------------------| (X2)
A|-0~~-----------------------------0~~-----------------------------|
D|---------------------------------0~~-----------------------------|

[Guitar 1]                                    "Beause formulas are
   "Can you read 'em?..."                      for nothing..."
e|-----------------------------------------------------------------|
B|-----------------------------------------------------------------|
G|-----------------------------------------------------------------|
D|----------2-----2--------------0-----0------0--------------------|
A|-----2-------2-----2-2-----0------0-----0-0-0--------------------|
D|-2-2---2------2-----2--0-0---0-----0-----0--0--------------------|

[Guitar 1 and 2]
                            "Ooooooh"
e|-0-0-0-0-0-0-0-0-0-0-0-0-0-0-0-0-0-0-0-0-0-0-0-0-0-0-0-0-0-0-0-0-|
B|-2-2-2-2-2-2-2-2-2-2-2-2-2-2-2-2-3-3-3-3-3-3-3-3-3-3-3-3-3-3-3-3-|
G|-2-2-2-2-2-2-2-2-2-2-2-2-2-2-2-2-2-2-2-2-2-2-2-2-2-2-2-2-2-2-2-2-|
D|-2-2-2-2-2-2-2-2-2-2-2-2-2-2-2-2-0-0-0-0-0-0-0-0-0-0-0-0-0-0-0-0-| (X2)
A|-0-0-0-0-0-0-0-0-0-0-0-0-0-0-0-0-0-0-0-0-0-0-0-0-0-0-0-0-0-0-0-0-|
D|---------------------------------0-0-0-0-0-0-0-0-0-0-0-0-0-0-0-0-|


Verse 2

[Guitar 1]
  "I heard that I was close to dying..."
e|-[------------------------------]--------------------------------|
B|-[----Do not play this part-----]--------------------------------|
G|-[-------the first time---------]--------------------------------|
D|-----2---4--------2---4--2-4-2-2---------------------------------| (X3)
A|-0-0-0-0-0--0-0-0-0-0-0--0-0-0-0-0-4-4-2-0-0-0-2-4-2-0-0---------|
D|-----------------------------------------------------------------|

[Guitar 2]
e|-0~~-----------------------------0~~-----------------------------|
B|-2~~-----------------------------3~~-----------------------------|
G|-2~~-----------------------------2~~-----------------------------|
D|-2~~-----------------------------0~~-----------------------------| (X2)
A|-0~~-----------------------------0~~-----------------------------|
D|---------------------------------0~~-----------------------------|


[Guitar 1]
   "Can you read 'em?..."
e|-----------------------------------------------------------------|
B|-----------------------------------------------------------------|
G|-----------------------------------------------------------------|
D|-----------2-----2----------------0------0-0-0-0-0-0-0-0---------|
A|-----2--------2-----2-2-----0--------0---0-0-0-0-0-0-0-0---------|
D|-2-2---2-2-----2-----2--0-0---0-0-----0--0-0-0-0-0-0-0-0---------|

Chorus
[Guitar 1]
   "Because diagnostics are nothing..."
e|-----------------------------------------------------------|
B|-----------------------------------------------------------|
G|-7-7-7-7-7-7-7----------------4-4-4-4-4-4-4----------------|
D|-7-7-7-7-7-7-7-7--7-7-7-7-7-7-4-4-4-4-4-4-4-2--2-2-2-2-2-2-|
A|-5-5-5-5-5-5-5-7--7-7-7-7-7-7-2-2-2-2-2-2-2-2--2-2-2-2-2-2-|
D|---------------7--7-7-7-7-7-7---------------2--2-2-2-2-2-2-|

                    "...after all..."
e|------------------------------0-0-0-0-0-0-0-0-0-0-0-0-0-0-0-0----|
B|------------------------------3-3-3-3-3-3-3-3-3-3-3-3-3-3-3-3----|
G|-4-4-4-4-4-4-4----------------2-2-2-2-2-2-2-2-2-2-2-2-2-2-2-2----|
D|-4-4-4-4-4-4-4-2--2-2-2-2-2-2-0-0-0-0-0-0-0-0-0-0-0-0-0-0-0-0----|
A|-2-2-2-2-2-2-2-2--2-2-2-2-2-2-0-0-0-0-0-0-0-0-0-0-0-0-0-0-0-0----|
D|---------------2--2-2-2-2-2-2-0-0-0-0-0-0-0-0-0-0-0-0-0-0-0-0----|

  "I'll find a way out."             "I'll find a way out."
e|-0~~--------------------------------0~~--------------------------|
B|-2~~--------------------------------2~~--------------------------|
G|-2~~--------------------------------2~~--------------------------|
D|-2~~--------------------------------2~~--------------------------|
A|-0~~--------------------------------0~~--------------------------|
D|-----------------------------------------------------------------|

  "I'll find a way out of here."
e|-0~~-------------------------------------------------------------|
B|-2~~-------------------------------------------------------------|
G|-2~~-------------------------------------------------------------|
D|-2~~-------------------------------------------------------------|
A|-0~~-----------------------------0-4-4-2-0-0-0-2-4-2-0-0---------|
D|-----------------------------------------------------------------|

   "Can you read 'em?..."
e|-----------------------------------------------------------------|
B|-----------------------------------------------------------------|
G|-----------------------------------------------------------------|
D|----------2-----2--------------0------0-0-0-0-0-0-0-0------------|
A|-----2-------2-----2-2-----0------0---0-0-0-0-0-0-0-0------------|
D|-2-2---2------2-----2--0-0---0-----0--0-0-0-0-0-0-0-0------------|

Ending Chorus
[Guitar 1]
   "Because pillowcases are something..."
e|-----------------------------------------------------------|
B|-----------------------------------------------------------|
G|-7-7-7-7-7-7-7----------------4-4-4-4-4-4-4----------------|
D|-7-7-7-7-7-7-7-7--7-7-7-7-7-7-4-4-4-4-4-4-4-2--2-2-2-2-2-2-|
A|-5-5-5-5-5-5-5-7--7-7-7-7-7-7-2-2-2-2-2-2-2-2--2-2-2-2-2-2-|
D|---------------7--7-7-7-7-7-7---------------2--2-2-2-2-2-2-|

                    "...after all..."
e|------------------------------0-0-0-0-0-0-0-0-0-0-0-0-0-0-0-0----|
B|------------------------------3-3-3-3-3-3-3-3-3-3-3-3-3-3-3-3----|
G|-4-4-4-4-4-4-4----------------2-2-2-2-2-2-2-2-2-2-2-2-2-2-2-2----|
D|-4-4-4-4-4-4-4-2--2-2-2-2-2-2-0-0-0-0-0-0-0-0-0-0-0-0-0-0-0-0----| (X2)
A|-2-2-2-2-2-2-2-2--2-2-2-2-2-2-0-0-0-0-0-0-0-0-0-0-0-0-0-0-0-0----|
D|---------------2--2-2-2-2-2-2-0-0-0-0-0-0-0-0-0-0-0-0-0-0-0-0----|

End.
e|-0~~--------|
B|-2~~--------|
G|-2~~--------|
D|-2~~--------|
A|-0~~--------|
D|------------|

This is pretty darn accurate, but I'm sure there are mistakes. If you find any please 
or message me.
Tap to rate this tab
 
# A B C D E F G H I J K L M N O P Q R S T U V W X Y Z