Song name
# A B C D E F G H I J K L M N O P Q R S T U V W X Y Z

Manchester Orchestra - Deer tab

Capo on 2nd fret

Intro

e|---------|
B|---------|
G|----4-4b-|
D|--5------|
A|--5------|
D|--5------|

Just pick around this chord shape

Verse Chords

e|-------------------|
B|-------------------|
G|-------------------|
D|-------------------|
A|--5--/10---\5---\0-|
D|--5--/10---\5---\0-|

Second time he goes up to a high D, listen to the song for the rhythm.

Dear Everybody...

e|-----------------------|
B|-----------------------|
G|-----------------------|
D|-----------------------|
A|-\-2---0---/10---\5----|
D|-\-2---0---/10---\5----|
Tap to rate this tab
 
# A B C D E F G H I J K L M N O P Q R S T U V W X Y Z