Song name
# A B C D E F G H I J K L M N O P Q R S T U V W X Y Z

Manchester Orchestra - Simple Math tab

-------------------------------------------------------------------------------
                             Simple Math - Manchester Orchestra
-------------------------------------------------------------------------------
Tabbed by: MUZZYGRANDE
Email: hurricanesteve31@yahoo.com

Tuning: Half step down 

0:00
|--------------------------------------------|
|--------7-------8-------7-------------------|   
|----7-9---9-7-9---9-7-9---9-7-9-------------|  x2
|7h9-----------------------------------------|
|--------------------------------------------|
|--------------------------------------------|

0:31 
Listen for repeats
|-7------------------------------------------|
|-7------------------------------------------|   
|-7------------------------------------------|   
|-7------------------------------------------|
|-9------------------------------------------|
|-7------------------------------------------|

Pre-Chorus
0:48
Palm mute
|--------------------------------------------|
|--------------------------------------------|   
|-----------------7777-----------------------|  x2 
|------------5555-7777-----------------------|
|------------5555-5555-----------------------| 
|--00000000--3333----------------------------|

Chorus
1:01
Let ring
|--------------------------------------------|
|--------------------------------------------|   
|-4--------7---------------------------------|  x3
|-5--------7---------------------------------|
|-5--------5---------------------------------|
|-3------------------------------------------|

1:26
|--------------------------------------------|
|--------------------------------------------|   
|-5-5-5-5--7-7-77777-------------------------|   
|-5-5-5-5--7-7-77777-------------------------|
|-3-3-3-3--5-5-55555-------------------------|
|--------------------------------------------|

1:29
Listen for the bend by guitar 2 -(b)- only in the first go around though
|--------------------------------------------|
|--------7-------8---------7(b)--------------|   
|----7-9---9-7-9---9-7-9---9-7-9-------------|  x2
|7h9-----------------------------------------|
|--------------------------------------------|
|--------------------------------------------|

1:46
Again, the repeats
|-7------------------------------------------|
|-7------------------------------------------|   
|-7------------------------------------------|   
|-7------------------------------------------|
|-9------------------------------------------|
|-7------------------------------------------|

Pre-Chorus
2:18
Palm mute
|--------------------------------------------|
|--------------------------------------------|   
|-----------------7777-----------------------|  x2 
|------------5555-7777-----------------------|
|------------5555-5555-----------------------| 
|--00000000--3333----------------------------|

Chorus
2:30
Let ring
|--------------------------------------------|
|--------------------------------------------|   
|-4--------7---------------------------------|  x4 
|-5--------7---------------------------------|
|-5--------5---------------------------------|
|-3------------------------------------------|

3:00
|--------------------------------------------|
|--------------------------------------------|   
|------------4444-6666-7777777777777777------|  x4 
|--5555-7777-4444-6666-7777777777777777------|
|--5555-7777-2222-4444-5555555555555555------|
|--3333-5555---------------------------------|

Chorus
3:30
Let ring
|--------------------------------------------|
|--------------------------------------------|   
|-4--------7---------------------------------|  x4 
|-5--------7---------------------------------|
|-5--------5---------------------------------|
|-3------------------------------------------|

3:59
Palm mute
|--------------------------------------------|
|--------------------------------------------|   
|--------------------------------------------|  x4 
|--------------------------------------------|
|----------55555555--------------------------| 
|-33333333-----------------------------------|

4:26
|--------------------------------------------|
|--------------------------------------------|   
|------------4444-6666-7777777777777777------|  x4 
|--5555-7777-4444-6666-7777777777777777------|
|--5555-7777-2222-4444-5555555555555555------|
|--3333-5555---------------------------------|

************************************

| /   slide up
| \   slide down
| h   hammer-on
| p   pull-off
| ~   vibrato
| +   harmonic
| x   Mute note
| b   Bend
| pb  Pre-bend
| br  Bend release
| pbr Pre-bend release
| brb Bend release bend

************************************
Tap to rate this tab
# A B C D E F G H I J K L M N O P Q R S T U V W X Y Z