Song name
# A B C D E F G H I J K L M N O P Q R S T U V W X Y Z

Manchester Orchestra - Pride tab

Pride

Tuned a half step down

***There is a second guitar part to this song but I didnít tab that one out because itís 
really not important until the last minute of the song***

Intro/Verse
eb||-----------------------------------------------||
Bb||-----------------------------------------------||
Gb||-----------------------------------------------||
Db||-----------------------------------------------||
Ab||-5h7-7-7-7-5- X2 ---5h7-7-7-9--5h7-7-7-7-5-----||
Eb||-0------------------0-----8-10-0---------------||

eb||------------------------------------------------------||
Bb||------------------------------------------------------||
Gb||------------------------------------------------------||
Db||------------------------------------------------------||
Ab||-5h7-7-7-9--5h7-7-7-7p8--5h7-7ó7s9---9----5h7-7-7-7-5-||
Eb||-0-----8-10-0------------0-----8---10-10--0-----------||

eb||---------------------------||
Bb||---------------------------||
Gb||---------------------------||
Db||---------------------------||
Ab||-5h7-7-7-9--5h7-7-7--------||
Eb||-0-----8-10-0---0-0--------||

Chorus

eb||----------------------------0------------------||
Bb||----------------------------0------------------||
Gb||----------------------------1------------------||
Db||------------------    ------2------------------||
Ab||---7p0------------ X4 ------2------------------||
Eb||-0-----h6h7-5-3---    ------0-----0------------||

Verse 2
eb||-----------------------------------------------||
Bb||-----------------------------------------------||
Gb||-----------------------------------------------||
Db||--------------------2---------2----------------||
Ab||-7-3-5-5h7-9b10---7-3-5-7---7-3-5--------------||
Eb||----------------------------------0-3-0--------||





eb||--------------||
Bb||--------------||
Gb||--------------||
Db||---2----------||
Ab||-7-3-2-5s7----||
Eb||-------0------||

Chorus (the second time through bend the 5 and 3)
eb||----------------------------0------------------||
Bb||----------------------------0------------------||
Gb||----------------------------1--------1---------||
Db||------------------    ------2----------2-------||
Ab||---7p0------------ X4 ------2------------------||
Eb||-0-----h6h7-5-3---    ------0-----0------------||

Verse 3
(play last part until verse ends)

eb||-----------------------------------------------||
Bb||------------------------------------12--12-12--||
Gb||-----------------------------------9---9--9----||
Db||-----------------------------------------------||
Ab||-7-3-5-----------------------------------------||
Eb||-------0-3-0--0-8-8-8-7-7-7-0-3-0--------------||

Chorus

e||----------------------------------------------||
B||----------------------------------------------||
G||-------------------------9p8p7----------    --||
D||------------------    ---------9-7------ X2 --||
A||---7p0------------ X4 -------------10---    --||
E||-0-----h6h7-5-3---    -0----------------------||


e||--12p11p10----------------------------0-------||
B||-----------12-10-10b------------------0-------||
G||-----------------------9p8p7----------1-------||
D||-----------------------------9-7------2-------||
A||---------------------------------10---2-------||
E||-0-------------------0----------------0-------||






Strumming is ^vvv^
e||---------------------------------||
B||---------------------------------||
G||-----  --------------  ----------||
D||-----X5 -- X5 --X5 --X5 ---------|| X6
A||-5s7-  --5----4----2-------------||
E||-0-0-----0----0----0-------------||

The strumming then gets faster. I canít explain it. Listen to the song.

e||---------------------------------||
B||---------------------------------||
G||-8s9-  --7----6----4-  ----------||
D||-5-9-X8 -7 X8 6-X8 4-X8 ---------|| X4
A||-5s7-  --5----4----2-------------||
E||-0-0-----0----0----0-------------||


e||-----------------------------------||(Mute the Em chord
B||-----------------------------------|| after 1st time)
G||-----------------------------------||
D||-22222--55555--7777-9--7-5--2222---|| X4
A||-22222--55555--7777-9--7-5--2222---||
E||-00000--33333--5555-7--5-3--0000---||

        Bend the 5 and 3 the second time
e||----------------------------0------------------||
B||----------------------------0------------------||
G||----------------------------1------------------||
D||------------------    ------2------------------||
A||---7p0------------ X8 ------2------------------||
E||-0-----h6h7-5-3---    ------0------------------||
Tap to rate this tab
# A B C D E F G H I J K L M N O P Q R S T U V W X Y Z