Song name
# A B C D E F G H I J K L M N O P Q R S T U V W X Y Z

Manchester Orchestra - Pale Black Eye tab

I just tweaked it a bit to sound closer to the album version. Play with the song & 
it should all make sense...

Tuning: 1/2 step down.

        G*    Asus    E7
Eb|-----------------------|
Ab|-----3-------3---------|
Db|-------------2-----1---|
Gb|-------------2---------|
Bb|-----2-------------2---|
eb|-----3-----------------|

Fill 1
    Am Am7   
Eb|------------|
Ab|-1--1-1-1-1-|
Db|-2---h2h-h2-|
Gb|-2--2-2-2-2-|
Bb|------------|
eb|------------|


Intro.

      G                    Am Am7          C   Am Am7     Am C  E
Eb|-------------------------------------------0------------------|
Ab|-------------------------1--1-1-1-1-1----1---1--1-1-1-1-1-1--0|
Db|---------5h7p5--2h4p2--2-2-----h2h-h2---0-0--2---h2h-h2-2----1|
Gb|-----7-5-----------------2--2-2-2-2-2--2-----2--2-2-2-2-2-2--2|
Bb|---5----------------------------------3-------------------3--2|
eb|--3-----------------------------------------------------------|

Verse

G*          C     G     C                            E
Father, I plead in waves       so I don't need you like I used to

G*          C   G       C                  E
Fear and nostalgia say         I don't have it anymore

       Am            E
Eb|----------------------------|
Ab|-----1--1---------0---------|
Db|----2-2--2-2-----1-1-1--1---|
Gb|---2---2--2-2---2---2-2--2-2|
Bb|--0----------0-2-------2--2-|
eb|----------------------------|
            Whatever you want

       Am            E
Eb|----------------------------|
Ab|-----1--1---------0---------|
Db|----2-2--2-2-----1-1-1--1---|
Gb|---2---2--2-2---2---2-2--2-2|
Bb|--0----------0-2-------2--2-|
eb|----------------------------|       
            Whatever you need

          F
Bleed from me

          E
Right from me

          F        E
Bleed from me


Instrumental (same as Intro.):

Verse: Same as first verse.

I don't have yours or mine
I don't hurt you like I used to
Amy, you must be tired cause when you sleep, you sleep alone
And understand the throne

F                 C              E
  If he didn't pay what he had paid I'd undeniably become erased

Am                E
  So whatever you want

Am                  E
  Take whatever you need

              F
And bite your veins

           C
Bleed your pain

     E
Into me


Goddamn I'm tired of lying            |  Same as
I wish I loved you like I used to     |   first
So hold on, you pale black eye        |   verse
Cause when I sleep, I sleep alone     |


Instrumental (ooooohhoooohhh part...):

Am    E     Am    E    F    E  F    E


Am                E
  So whatever you want

   Am            E
No, whatever you need

         F
Take from me

          C
Right from me

     E
From me


Final:

Am Asus E E7 Am Asus E
Tap to rate this tab
# A B C D E F G H I J K L M N O P Q R S T U V W X Y Z