Song name
# A B C D E F G H I J K L M N O P Q R S T U V W X Y Z

Manchester Orchestra - Top Notch tab

I believe on the actual recording there are 3 simultaneous guitar parts but this 
tab is a one guitar version.

Intro
E|--------------------------------------------------|
B|--------------------------------------------------|
G|--------------------------------------------------|
D|--8-------8-------------3-----------3-1-3---------|
A|--8-------8-11-8--------4-6-4-------x-1-1---6-4---|x2
E|--8-------8-11-11---------4-4-------4-1-1---4-4---|

Verse 1 
E|--------------------------------------------|     -----|
B|--------------------------------------------|     -----|
G|--------------------------------------------|     -----|
D|--------------------------------------------|     -----|
A|--------------------------------------------|x2   -----|
E|---8-----6/8/11-----/13--/16-----15~-13\----|     --1--|

Pre-verse
E|--------------------------------------------------|
B|--------------------------------6~----------------|
G|-------------------8b-----------------------------|
D|--8-------8-------------3-----------3-1-3---4-4---|
A|--8-------8-11-8--------4-6-4-------x-1-1---6-4---|x2
E|--8-------8-11-11---------4-4-------4-1-1---4-4---|

Verse 2              pm*******************************
E|----------------------------------------------------|
B|----------------------------------------------------|
G|----------------------------------------------------|
D|----------------------------------------------------|
A|--------------------4-4-4-4-4-4-4-4-4-4-4-4-4-4-4-4-|
E|--8----6/8/11----13-4-4-4-4-4-4-4-4-1-1-1-1-4-4-4-4-|

  pm**********************************************************************
E|-------------------------------------------------------------------------|
B|-------------------------------------------------------------------------|
G|-------------------------------------------------------------------------|
D|-------------------------------------------------------------------------|
A|-8-8-8-8-8-8-6-8-11-11-11-11-11-11-11-11-4-4-4-4-4-4-4-4-4-4-4-4-4-4-4-4-|
E|-8-8-8-8-8-8-6-8-11-11-11-11-11-11-11-11-4-4-4-4-4-4-4-4-1-1-1-1-4-4-4-4-|

           pm*****************************         ***********************
E|-------------------------------------------------------------------------|
B|-------------------------------------------------------------------------|
G|-----------------------------------------3-3-3-3-------------------------|
D|-8-8-8-8---------------------------------3-3-3-3-------------------------|
A|-8-8-8-8-8-8-8-8-11-11-11-11-11-11-11-11-4-4-4-4-4-4-4-4-4-4-4-4-4-4-4-4-|
E|-8-8-8-8-8-8-8-8-11-11-11-11-11-11-11-11-4-4-4-4-4-4-4-4-1-1-1-1-4-4-4-4-|

           pm*****************************         ***********************
E|-------------------------------------------------------------------------|
B|-------------------------------------------------------------------------|
G|-----------------------------------------3-3-3-3-------------------------|
D|-8-8-8-8---------------------------------3-3-3-3-------------------------|
A|-8-8-8-8-8-8-8-8-11-11-11-11-11-11-11-11-4-4-4-4-4-4-4-4-4-4-4-4-4-4-4-4-|
E|-8-8-8-8-8-8-8-8-11-11-11-11-11-11-11-11-4-4-4-4-4-4-4-4-1-1-1-1-4-4-4-4-|

E|------|
B|------|
G|------|
D|------|
A|------|
E|-1~---|

Chorus (fast picking)
E|----------------------------|
B|----------------------------|
G|----------------------------|
D|--8--------11--------4----3-|x4
A|--8--------11--------4----3-|
E|--8--------11--------4----3-|

Pre-verse
E|--------------------------------------------------|
B|--------------------------------6~----------------|
G|-------------------8b-----------------------------|
D|--8---8~--8-------------3-----------3-1-3---4-4---|
A|--8-------8-11-8--------4-6-4-------x-1-1---6-4---|
E|--8-------8-11-11---------4-4-------4-1-1---4-4---|

E|------ --------------------------------------------|
B|------ --------------------------6~----------------|
G|------ -------------8b-----------------------------|
D|--8--- ----8-------------3-----------3-1-3---4-4---|
A|--8--- ----8-11-8--------4-6-4-------x-1-1---6-4---|
E|--8--- ----8-11-11---------4-4-------4-1-1---4-4---|

Verse 3    pm*************************************************************
E|-------------------------------------------------------------------------|
B|-------------------------------------------------------------------------|
G|-------------------------------------------------------------------------|
D|-8-8-8-8-----------------------------------------------------------------|
A|-8-8-8-8-8-8-8-8-8--8--8--8--8--8--8--8--4-4-4-4-4-4-4-4-4-4-4-4-4-4-4-4-|
E|-8-8-8-8-8-8-8-8-11-11-11-11-11-11-11-11-4-4-4-4-4-4-4-4-1-1-1-1-4-4-4-4-|

  pm**********************************************************************
E|-------------------------------------------------------------------------|
B|-------------------------------------------------------------------------|
G|-------------------------------------------------------------------------|
D|-------------------------------------------------------------------------|
A|-8-8-8-8-8-8-8-8-8--8--8--8--8--8--8--8--4-4-4-4-4-4-4-4-4-4-4-4-4-4-4-4-|
E|-8-8-8-8-8-8-8-8-11-11-11-11-11-11-11-11-4-4-4-4-4-4-4-4-1-1-1-1-4-4-4-4-|

repeat verse 3

           pm*************************************************************
E|-------------------------------------------------------------------------|
B|-------------------------------------------------------------------------|
G|-------------------------------------------------------------------------|
D|-8-8-8-8-----------------------------------------------------------------|
A|-8-8-8-8-8-8-8-8-8--8--8--8--8--8--8--8--4-4-4-4-4-4-4-4-4-4-4-4-4-4-4-4-|
E|-8-8-8-8-8-8-8-8-11-11-11-11-11-11-11-11-4-4-4-4-4-4-4-4-1-1-1-1-4-4-4-4-|

           pm*************************************************************
E|-------------------------------------------------------------------------|
B|-------------------------------------------------------------------------|
G|-------------------------------------------------------------------------|
D|-8-8-8-8-----------------------------------------------------------------|
A|-8-8-8-8-8-8-8-8-8--8--8--8--8--8--8--8--4-4-4-4-4-4-4-4-4-4-4-4-4-4-4-4-|
E|-8-8-8-8-8-8-8-8-11-11-11-11-11-11-11-11-4-4-4-4-4-4-4-4-1-1-1-1-4-4-4-4-|
           
E|--------------------------------------|
B|--------------------------------------|
G|--------------------------------------|
D|-8-8-8-8------------------------------|
A|-8-8-8-8------------------------------|
E|-8-8-8-8--8------11---------16-----15-|
            \------trem picking-------/

Chorus(fast picking)
E|----------------------------|
B|----------------------------|
G|----------------------------|
D|--8--------11--------4----3-|x4
A|--8--------11--------4----3-|
E|--8--------11--------4----3-|

Outro
E|--------------------------------------------------|
B|--------------------------------6~----------------|
G|-------------------8b-----------------------------|
D|--8---8~--8-------------3-----------3-1-3---4-4---|x2
A|--8-------8-11-8--------4-6-4-------x-1-1---6-4---|
E|--8-------8-11-11---------4-4-------4-1-1---4-4---|



I've done a cover of this tab if you are interested:
http://www.youtube.com/watch?v=leecj6pas3Q&feature=c4-overview&list=UUac9T91iGWM1f1SKc-C7TGQ
Tap to rate this tab
# A B C D E F G H I J K L M N O P Q R S T U V W X Y Z