Song name
# A B C D E F G H I J K L M N O P Q R S T U V W X Y Z

Manchester Orchestra - The Mansion tab

The Mansion - Manchester Orchestra
Tuning - Drop D
Tabbed By - Cdoggg94



Intro
e|-------------------------------------------------------------------|
B|-------------------------------------------------------------------|
G|-------------------------------------------------------------------|
D|---6---6---6---6---1---1---1---1---5---5---5---5---5---5---5---5---|
A|---6---6---6---6---1---1---1---1---5---5---5---5---5---5---5---5---|
D|---6---6---6---6---1---1---1---1---5---5---5---5---5---5---5---5---|




Verse 1
e|-------------------------------------------------------------------|
B|-------------------------------------------------------------------|
G|-------------------------------------------------------------------|
D|---6---6---6---6---1---1---1---1---5---5---5---5---5---5---5---5---|
A|---6---6---6---6---1---1---1---1---5---5---5---5---5---5---5---5---|
D|---6---6---6---6---1---1---1---1---5---5---5---5---5---5---5---5---|

*Same as intro but palm muted*




Pre-Chorus
e|-------------------------------------------------------------------|
B|-------------------------------------------------------------------|
G|-------------------------------------------------------------------|
D|---6---6---6---6---6---6---6---6---6---6---6---6---6---6---6---6---|
A|---6---6---6---6---6---6---6---6---6---6---6---6---6---6---6---6---|
D|---6---6---6---6---6---6---6---6---6---6---6---6---6---6---6---6---|

*Also Muted*




Chorus
e|-------------------------------------------------------------------|
B|-------------------------------------------------------------------|
G|-------------------------------------------------------------------|
D|---1---1---1---1---5---5---5---5---6---6---6---6---6---6---6---6---|
A|---1---1---1---1---5---5---5---5---6---6---6---6---6---6---6---6---|
D|---1---1---1---1---5---5---5---5---6---6---6---6---6---6---6---6---|

*This only plays once through and then stops.*




Verse 2 
(This verse starts silent. Guitar comes in on the G then plays normally through)

*First time through*
e|-----------------------------------------------------------------------------------|
B|-----------------------------------------------------------------------------------|
G|-----------------------------------------------------------------------------------|
D|---5---5---5---5---6---6---6---6---1---1---1---1---5---5---5---5---5---5---5---5---|
A|---5---5---5---5---6---6---6---6---1---1---1---1---5---5---5---5---5---5---5---5---|
D|---5---5---5---5---6---6---6---6---1---1---1---1---5---5---5---5---5---5---5---5---|

*Rest of verse*
e|-------------------------------------------------------------------|
B|-------------------------------------------------------------------|
G|-------------------------------------------------------------------|
D|---6---6---6---6---1---1---1---1---5---5---5---5---5---5---5---5---|
A|---6---6---6---6---1---1---1---1---5---5---5---5---5---5---5---5---|
D|---6---6---6---6---1---1---1---1---5---5---5---5---5---5---5---5---|




Pre-Chorus
e|-------------------------------------------------------------------|
B|-------------------------------------------------------------------|
G|-------------------------------------------------------------------|
D|---6---6---6---6---6---6---6---6---6---6---6---6---6---6---6---6---|
A|---6---6---6---6---6---6---6---6---6---6---6---6---6---6---6---6---|
D|---6---6---6---6---6---6---6---6---6---6---6---6---6---6---6---6---|




Chorus
e|-------------------------------------------------------------------|
B|-------------------------------------------------------------------|
G|-------------------------------------------------------------------|
D|---1---1---1---1---5---5---5---5---6---6---6---6---6---6---6---6---|
A|---1---1---1---1---5---5---5---5---6---6---6---6---6---6---6---6---|
D|---1---1---1---1---5---5---5---5---6---6---6---6---6---6---6---6---|




Verse 3

*Guitar 1*
e|-------------------------------------------------------------------|
B|-------------------------------------------------------------------|
G|-------------------------------------------------------------------|
D|---6---6---6---6---1---1---1---1---5---5---5---5---5---5---5---5---|
A|---6---6---6---6---1---1---1---1---5---5---5---5---5---5---5---5---|
D|---6---6---6---6---1---1---1---1---5---5---5---5---5---5---5---5---|


*Guitar 2*
e|---------------------------------------------------------------|
B|---------------------------------------------------------------|
G|---------------------------------------------------------------|
D|---6---------------1-----------------5~------------------5~----|
A|---------------------------------------------------------------|
D|---------------------------------------------------------------|



Pre-Chorus



Chorus 




Solo

*Guitar 1*
e|-------------------------------------------------------------------|
B|-------------------------------------------------------------------|
G|-------------------------------------------------------------------|
D|---6---6---6---6---1---1---1---1---5---5---5---5---5---5---5---5---|
A|---6---6---6---6---1---1---1---1---5---5---5---5---5---5---5---5---|
D|---6---6---6---6---1---1---1---1---5---5---5---5---5---5---5---5---|


*Guitar 2*
e|---------------------------------------------------------------------------------|
B|---------------------------------------------------------------------------------|
G|---------------------------------------------------------------------------------|
D|--6---6---6---6--6--6---5---5---5--5--5------------------------------------------|
A|-------------------------------------------------5---5---5--5--5--5--5--6--------|
D|---------------------------------------------------------------------------------|

e|-------------------------------------------------------------------------------|
B|-------------------------------------------------------------------------------|
G|-------------------------------------------------------------------------------|
D|-------------------------------------------------------------------------------|
A|---/6---5---3---1--1--1---1/5---5---5---5--------------------------------------|
D|-------------------------------------------------------------------------------|


*End on G#*
Tap to rate this tab
# A B C D E F G H I J K L M N O P Q R S T U V W X Y Z