Song name
# A B C D E F G H I J K L M N O P Q R S T U V W X Y Z

Manchester Orchestra - Alice And Interiors tab

-----------------------------------------------------------------
Alica and Interiors - Manchester Orchestra
-----------------------------------------------------------------
Tabbed by: Joshua
Email: turak2000us@yahoo.com

Tuning: standard


Intro:
e|-------------------------------------------------------------------|
B|--------------------------2----------------------------------------|
G|----2--4-2--4/6--4-2----2------2--4-2--4/6--4-2--2-1---------------|
D|-0--------------------0-----0------------------------4-------------|
A|-------------------------------------------------------------------|
E|-------------------------------------------------------------------|

e|--------------------2--------------------2---------------------|
B|------------------2--------------------2---2-------------------|
G|-2--4-2--1-2----2------2--4-2--1-2---2-------2-----------------|
D|-------------4---------------------4---------------------------|
A|---------------------------------------------------------------|
E|---------------------------------------------------------------|

e|---------------------------------------------------------------|
B|--------------------------2------------------------------------|
G|----2--4-2--4/6--4-2----2------2--4-2--4/6--4-2--2-1h2---------|
D|-0--------------------0-----0--------------------------4-------|
A|---------------------------------------------------------------|
E|---------------------------------------------------------------|

e|--------------------2--------------------2---------------------|
B|------------------2--------------------2---2-------------------|
G|-2--4-2--1-2----2------2--4-2--1-2---2-------2-----------------|
D|-------------4---------------------4---------------------------|
A|---------------------------------------------------------------|
E|---------------------------------------------------------------|

I wrote this tab mostly by myself, but i had a little help from Manchester Orchestra via 
so I'm pretty sure that this tab is, for the most part, correct.

*This band came to my highschool one fateful day and ever since then i've been hooked. 
Music, along with their lyrical prowess, makes then one of my favorite bands to date.

| /  slide up
| \  slide down
| h  hammer-on
| p  pull-off
| ~  vibrato
| +  harmonic
| x  Mute note
Tap to rate this tab
# A B C D E F G H I J K L M N O P Q R S T U V W X Y Z