Song name
# A B C D E F G H I J K L M N O P Q R S T U V W X Y Z

Manchester Orchestra - Where Have You Been Acoustic tab

-------------------------------------------------------------------------------
	  Where Have You Been Acoustic - Manchester Orchestra
-------------------------------------------------------------------------------
Tabbed by: ColinRhys
Email: Rhycam@comcast.net

Tuning: Standard

Sorry this isn't the full song, just I thought some people would like to have the intro 
since it sounds pretty cool. Listen to the song for alot more help on the picking and 
This is what I interpreted it as. Have fun! Email me with suggestions, comments, or anything else!

P.S. This is my first tab ever, so apologies if it sucks.


e|--------------------------------------------------------------------------|
B|---------------10--------10-------10-------10-----------------------------|
G|------11----------11--------11-------11--------11-------------------------|
D|--------------------------------------------------------------------------|
A|---9------9---------------------------------------------------------------|
E|--------------------------------------------------------------------------|

e|--------------------------------------------------------------------------|
B|----------------9------9------9------9------------------------------------|
G|------9------------9------9------9------9---------------------------------|
D|--------------------------------------------------------------------------|
A|---7------7---------------------------------------------------------------|
E|--------------------------------------------------------------------------|

e|--------------------------------------------------------------------------|
B|----------------7-----7------7-----7-----7----7-----7-----7---------------|
G|-------7-----------7-----7------7-----7-----7----7-----7-----7------------|
D|--------------------------------------------------------------------------|
A|---5------5---------------------------------------------------------------|
E|--------------------------------------------------------------------------|

e|--------------------------------------------------------------------------|
B|------------------------10------10----10-----10---------------------------|
G|-----9---/------10----------11-----11-----11------11----------------------|
D|--------------------------------------------------------------------------|
A|---7---7-/--9-------9-----------------------------------------------------|
E|--------------------------------------------------------------------------|

e|--------------------------------------------------------------------------|
B|--------------9----9-----9----9-------------------------------------------|
G|-----9----------9-----9-----9-----9---------------------------------------|
D|--------------------------------------------------------------------------|
A|---7----7-----------------------------------------------------------------|
E|--------------------------------------------------------------------------|

e|--------------------------------------------------------------------------|
B|------------7-----7------7-----7-----7-----7-----7-----7------------------|
G|------7--------7------7------7-----7----7-----7-----7-----7---------------|
D|--------------------------------------------------------------------------|
A|---5-----5----------------------------------------------------------------|
E|--------------------------------------------------------------------------|

e|--------------------------------------------------------------------------|
B|--------------10----10-----10------10-------------------------------------|
G|------10--------11------11-----11------11---------------------------------|
D|--------------------------------------------------------------------------|
A|---9------9---------------------------------------------------------------|
E|--------------------------------------------------------------------------|

e|--------------------------------------------------------------------------|
B|-------------9------10-9--7-----------------------------------------------|
G|-----9----------9---------------------------------------------------------|
D|--------------------------------------------------------------------------|
A|--7-----7-----------------------------------------------------------------|
E|--------------------------------------------------------------------------|

e|---------------------------------------------------------------------------|
B|--------------7------7------7-----7-----7------7------7------7-------------|
G|------7----------7------7------7-----7------7------7------7-----7----------|
D|---------------------------------------------------------------------------|
A|---5-----5-----------------------------------------------------------------|
E|---------------------------------------------------------------------------|


| /  slide up
| \  slide down
| h  hammer-on
| p  pull-off
| ~  vibrato
| +  harmonic
| x  Mute note
===============================================================================
Tap to rate this tab
 
# A B C D E F G H I J K L M N O P Q R S T U V W X Y Z