Song name
# A B C D E F G H I J K L M N O P Q R S T U V W X Y Z

Mando Diao - Sweet Ride tab

-------------------------------------------------------------------------------
			     Sweet Ride- Mando Diao
-------------------------------------------------------------------------------
Tabbed by: GuitarSpongeBob

So he exactly played the song  at "Rock am Ring" 2005, but on CD it is just a little bit different.
You should listen to the Live-version of the song. Live it sounds AWESOME!!!


Intro: Play 4 times,then the singer(Björn Dixgard)sings:"Alright"
After "Alright", play the Intro 4 times again.
e|-------------------------------------------------------|
B|-------------------------------------------------------|
G|--------------8-10--8----------------------------------|
D|-10-10--8-10--8-10--8----------------------------------|
A|-10-10--8-10--6--8--6----------------------------------|
E|--8--8--6--8-------------------------------------------|

Verse: Play this 2 times:
    C      Bb          G#           G
e|--8------6------------4-----------3----------------|
B|--8------6------------4-----------3----------------|
G|--9------7------------5-----------4----------------|
D|-10------8------------6-----------5----------------|
A|-10------8------------6-----------5----------------|
E|--8------6------------4-----------3----------------|
 Get...  engin's...  cooler's...  pimp.   
 
Chorus : 
   
   Em      C        Em     Am     Dm      G
e|---------0-----------------------1------3----------------------
B|---------1----------------1------3------0----------------------
G|---------0----------------2------2------0----------------------
D|-2-------2--------2-------2-------------0----------------------
A|-2-------3--------2---------------------2----------------------
E|-0-------0--------0---------------------3----------------------
  soul,   eighty,  sweet,  lady, soon,  motor's
  
Introriff: 2x

Verseriff: 2x 

Chorus:

Introriff:4x

Solo(Begin):(In the background): Play the same as verse: 4x

Solo(End):

e|---------------------------------------------------------|
B|--10----10-9-8---7-----7-----8-----8------10-----12------|
G|--10----10-9-8---7-----7-----8-----8------10-----12------|
D|--10----10-9-8---7-----7-----8-----8------10-----12------|
A|--8-----8--7-6---5-----5-----6-----6------8------10------|
E|---------------------------------------------------------|
   (6x)           (6x)  (3x)  (6x)  (3x)   (4x)   (4x)

Chorus:

Introriff: 11x

Endriff(immediately after the Introriff):1x 

e|----------------------------------------|
B|----------------------------------------|
G|----------------------------------------|
D|--10-8--9--10---------------------------|
A|--10-8--9--10---------------------------|
E|--8--6--7--8----------------------------|

That's my first tab. :)
Please rate!!! (:

Thanks for rating :):):)
Mando Diao rocks!!!
===============================================================================
Tap to rate this tab
 
# A B C D E F G H I J K L M N O P Q R S T U V W X Y Z