Song name
# A B C D E F G H I J K L M N O P Q R S T U V W X Y Z

Mando Diao - Long Before Rock N Roll tab

e -------------------------------------------3/2-|
H -5--5--5---5--5--5-5-5---5--5--5---5--5--5-----|
G ---------4-------------4---------4-------------|
D -----------------------------------------------|
A -----------------------------------------------|
E -----------------------------------------------|

__________________________________________________


e -------------------------------------------3/2-|
H -5--5--5---5--5--5-5-5---5--5--5---5--5--5-----|
G ---------4-------------4---------4-------------|
D -----------------------------------------------|
A -----------------------------------------------|
E -----------------------------------------------|

e ---------------------------------------------2-|
H -3--3--3---3--3--3-3-3---3--3--3---3--3--3/4---|
G ---------2-------------2---------2-------------|x2
D -----------------------------------------------|
A -----------------------------------------------|
E -----------------------------------------------|

Tap to rate this tab
 
# A B C D E F G H I J K L M N O P Q R S T U V W X Y Z